» » »

Haunted, Bury Your Dead Tabs (ver.2)

Artists:  A B C D E F G H I J K L M N O P Q R S T U V W X Y Z # 

Bury Your Dead Tabs (ver.2)

Haunted Tabs
Rating:
0/5 (0 votes)
Bury Your Dead lessons Tabs too difficult? Try these video lessons and learn fast
                
BURY YOUR DEAD
As recorded by The Haunted
(From the 2000 Album (THE HAUNTED) MADE ME DO IT)

	

Words by Aro/J. Björler/A. Björler Music by J. Björler/Jensen/A. Björler
Arranged by The Haunted

Eb5
0 2 2 x x x
	
E5
1 3 3 x x x
	
F#5
3 5 5 x x x
	
G#5
5 7 7 x x x

F#
3 x 5 x x x
	
A
6 x 8 x x x
	
G#
5 x 7 x x x
	
E
1 x 3 x x x

G5
4 6 6 x x x
	
A5
x 1 3 3 x x

Gtr I (D# G# C# F# A# D#) - 'Guitar 1'
Gtr II (D# G# C# F# A# D#) - 'Guitar 2'

 Intro
  Q=200
  E5
 4/4
  Gtrs I, II
  W          +W           +W           +W
|----------|------------|------------|--------|
|----------|------------|------------|--------|
|----------|------------|------------|--------|
|-2--------|-(2)--------|-(2)--------|-(2)----|
|-2--------|-(2)--------|-(2)--------|-(2)----|
|-0--------|-(0)--------|-(0)--------|-(0)----|


  PM|   PM  PM--|                       PM|   PM  PM--|
  E E E E E E E E    E  E E E  Q  E E   E E E E E E E E    E  E E E Q  E  E
|-----------------|-------------------|-----------------|-------------------|
|-----------------|-------------------|-----------------|-------------------|
|-----------------|-------------------|-----------------|-------------------|
|-----------------|-------------------|-----------------|-----------9--8----|
|-----7---8-------|-11-10-8-7-10--8-7-|-----7---8-------|-11-10-8-7------10-|
|-0-0---0---0-0-0-|-------------------|-0-0---0---0-0-0-|-------------------|


                                                             B      G
                                                             Gtr I
  PM|   PM  PM--|                          PM|   PM  PM--|
  E E E E E E E E    E  E E E S S E  E E   E E E E E E E E    H      H
|-----------------|----------------------|-----------------|---------------|
|-----------------|----------------------|-----------------|---------------|
|-----------------|----------------------|-----------------|---------------|
|-----------------|---------8-7h8p7------|-----------------|--9------5-----|
|-----7---8-------|-11-10-8---------10-8-|-----7---8-------|---------------|
|-0-0---0---0-0-0-|----------------------|-0-0---0---0-0-0-|--7------3-----|
|
|                                                            Gtr II
| W                  W                     W                  H      H
|-----------------|----------------------|-----------------|---------------|
|-----------------|----------------------|-----------------|---------------|
|-----------------|----------------------|-----------------|---------------|
|-----------------|----------------------|-----------------|---------------|
|-----------------|----------------------|-----------------|-14\-----------|
|-----------------|----------------------|-----------------|--------15\----|


  E5                           G   B     Bb                F
  W                 +H          Q  Q     W                  W
|-----------------|--------------------|-----------------|-------------------|
|-----------------|--------------------|-----------------|-------------------|
|-----------------|--------------------|-----------------|-------------------|
|-2---------------|-(2)---------5--9---|-8---------------|--3----------------|
|-2---------------|-(2)----------------|-----------------|-------------------|
|-0---------------|-(0)---------3--7---|-6---------------|--1----------------|
|
| PM|   PM  PM--|                        PM|   PM  PM--|
| E E E E E E E E    E   E E E  Q  E E   E E E E E E E E    E  E E E Q  E  E
|-----------------|--------------------|-----------------|-------------------|
|-----------------|--------------------|-----------------|-------------------|
|-----------------|--------------------|-----------------|-------------------|
|-----------------|--------------------|-----------------|-----------9--8----|
|-----7---8-------|-11--10-8-7-10--8-7-|-----7---8-------|-11-10-8-7------10-|
|-0-0---0---0-0-0-|--------------------|-0-0---0---0-0-0-|-------------------|


   |----------3----------|
   H         H           H           +H          H
|-12--------12----------12--------|-(12)---------8-------------|
|-15b17-----15b17-------15b17-----|-(15)--------11b13----------|
|---------------------------------|----------------------------|
|---------------------------------|----------------------------|
|---------------------------------|----------------------------|
|---------------------------------|----------------------------|
|
|  PM---|         PM  PM--------|
|  E    E E       E E E       E E     E   E E E  S    S E  E E
|---------------------------------|----------------------------|
|---------------------------------|----------------------------|
|---------------------------------|----------------------------|
|---------------------------------|-----------8--7h===8p7------|
|---------7---------8-------------|--11--10-8-------------10-8-|
|--0----0---------0---0-------0-0-|----------------------------|


                                               G5     Bb5
   H.              +S   +S   +S   +S     W                   +W
|--8---------------(8)--(8)--(8)--(8)-|--------------------|----------------|
|-10b12-----------(10)-(10)-(10)-(10)-|--------------------|----------------|
|-------------------------------------|--------------------|----------------|
|-------------------------------------|-<9>b15-------------|-(9)------------|
|-------------------------------------|--------------------|----------------|
|-------------------------------------|--------------------|----------------|
|
|  PM---|   PM  PM----------------------|           PM              PM
|  E    E E E E E   E         E          E     Q  E E Q  E    H     E Q  E
|-------------------------------------|--------------------|----------------|
|-------------------------------------|--------------------|----------------|
|-------------------------------------|--------------------|----------------|
|-------------------------------------|--------5--5---8--8-|----------3--3--|
|---------7---8-----------------------|--------5--5---8--8-|----------3--3--|
|--0----0---0---0---0---------0-------|--0-----3--3-0-6--6-|--------0-1--1--|


 Verse 1
  Gtrs I, II
  PM|   PM  PM      PM----| ~        PM|   PM  PM      PM----| ~
  E E E E E E E E   E E E E Q  E E   E E E E E E E E   E E E E Q  E E
|-----------------|----------------|-----------------|----------------|
|-----------------|----------------|-----------------|----------------|
|-----------------|----------------|-----------------|----------------|
|-----2---3---0h2-|----------------|-----2---3---0h2-|----------------|
|-----2---3---0h2-|----------------|-----2---3---0h2-|---------2--1---|
|-0-0---0---0-----|-4-3-1-0-3--1-0-|-0-0---0---0-----|-4-3-1-0------3-|


                                                            G5     Bb5
  PM|               PM--|         PM------|               PM     PM
  E E E E E E E E   E E E E S S E E E   E E E E E E E E   E Q  E E Q  E
|-----------------|-------------------|-----------------|---------------|
|-----------------|-------------------|-----------------|---------------|
|-----------------|-------------------|-----------------|---------------|
|-----2---3---0h2-|-------------------|-----2---3---0h2-|---5--5---8--8-|
|-----2---3---0h2-|-------1-0h1p0-----|-----2---3---0h2-|---5--5---8--8-|
|-0-0---0---0-----|-4-3-1---------3-1-|-0-0---0---0-----|-0-3--3-0-6--6-|


 Pre-Chorus 1
  PM|   PM  PM        PM--|   PM-----
  E E E E E E E E   E E E E E E E E
|-----------------|-----------------|
|-----------------|-----------------|
|-----------------|-----------------|
|-----4---5---4-5-|-4---------------|
|-----4---5---4-5-|-4-------1-------|
|-2-2---2---2-----|---2-0-3---3-0-3-|


 ---|   PM  PM      PM------------------------|
  E E E E E E E E   E S S S S S S E S S S S S S
|-----------------|-----------------------------|
|-----------------|-----------------------------|
|-----------------|-----------------------------|
|-----4---5---4-5-|-----------------------------|
|-----4---5---4-5-|-4---------------------------|
|-2-2---2---2-----|---5-5-5-5-5-5-3-6-6-6-6-6-6-|


  PM|   PM  PM        PM--|   PM-----
  E E E E E E E E   E E E E E E E E
|-----------------|-----------------|
|-----------------|-----------------|
|-----------------|-----------------|
|-----4---5---4-5-|-4---------------|
|-----4---5---4-5-|-4-------1-------|
|-2-2---2---2-----|---2-0-3---3-0-3-|


 ---|   PM  PM      PM------------------------|
  E E E E E E E E   E S S S S S S E S S S S S S
|-----------------|-----------------------------|
|-----------------|-----------------------------|
|-----------------|-----------------------------|
|-----4---5---4-5-|-----------------------------|
|-----4---5---4-5-|-4---------------------------|
|-2-2---2---2-----|---5-5-5-5-5-5-3-6-6-6-6-6-6-|


 Chorus 1
  PM|   PM  PM--|                       PM|   PM  PM--|
  E E E E E E E E    E  E E E  Q  E E   E E E E E E E E    E  E E E Q  E  E
|-----------------|-------------------|-----------------|-------------------|
|-----------------|-------------------|-----------------|-------------------|
|-----------------|-------------------|-----------------|-------------------|
|-----------------|-------------------|-----------------|-----------9--8----|
|-----7---8-------|-11-10-8-7-10--8-7-|-----7---8-------|-11-10-8-7------10-|
|-0-0---0---0-0-0-|-------------------|-0-0---0---0-0-0-|-------------------|


                                                               G5     Bb5
  PM|   PM  PM--|                          PM|   PM  PM------|      PM
  E E E E E E E E    E  E E E S S E  E E   E E E E E E E E   E Q  E E Q  E
|-----------------|----------------------|-----------------|---------------|
|-----------------|----------------------|-----------------|---------------|
|-----------------|----------------------|-----------------|---------------|
|-----------------|---------8-7h8p7------|-----------------|---5--5---8--8-|
|-----7---8-------|-11-10-8---------10-8-|-----7---8-------|---5--5---8--8-|
|-0-0---0---0-0-0-|----------------------|-0-0---0---0-0-0-|-0-3--3-0-6--6-|


 Verse 2
  PM|   PM  PM      PM----| ~        PM|   PM  PM      PM----| ~
  E E E E E E E E   E E E E Q  E E   E E E E E E E E   E E E E Q  E E
|-----------------|----------------|-----------------|----------------|
|-----------------|----------------|-----------------|----------------|
|-----------------|----------------|-----------------|----------------|
|-----2---3---0h2-|----------------|-----2---3---0h2-|----------------|
|-----2---3---0h2-|----------------|-----2---3---0h2-|---------2--1---|
|-0-0---0---0-----|-4-3-1-0-3--1-0-|-0-0---0---0-----|-4-3-1-0------3-|


                                                            G5     Bb5
  PM|               PM--|         PM------|               PM     PM
  E E E E E E E E   E E E E S S E E E   E E E E E E E E   E Q  E E Q  E
|-----------------|-------------------|-----------------|---------------|
|-----------------|-------------------|-----------------|---------------|
|-----------------|-------------------|-----------------|---------------|
|-----2---3---0h2-|-------------------|-----2---3---0h2-|---5--5---8--8-|
|-----2---3---0h2-|-------1-0h1p0-----|-----2---3---0h2-|---5--5---8--8-|
|-0-0---0---0-----|-4-3-1---------3-1-|-0-0---0---0-----|-0-3--3-0-6--6-|


 Pre-Chorus 2
  PM|   PM  PM        PM--|   PM-----
  E E E E E E E E   E E E E E E E E
|-----------------|-----------------|
|-----------------|-----------------|
|-----------------|-----------------|
|-----4---5---4-5-|-4---------------|
|-----4---5---4-5-|-4-------1-------|
|-2-2---2---2-----|---2-0-3---3-0-3-|


 ---|   PM  PM      PM------------------------|
  E E E E E E E E   E S S S S S S E S S S S S S
|-----------------|-----------------------------|
|-----------------|-----------------------------|
|-----------------|-----------------------------|
|-----4---5---4-5-|-----------------------------|
|-----4---5---4-5-|-4---------------------------|
|-2-2---2---2-----|---5-5-5-5-5-5-3-6-6-6-6-6-6-|


  PM|   PM  PM        PM--|   PM-----
  E E E E E E E E   E E E E E E E E
|-----------------|-----------------|
|-----------------|-----------------|
|-----------------|-----------------|
|-----4---5---4-5-|-4---------------|
|-----4---5---4-5-|-4-------1-------|
|-2-2---2---2-----|---2-0-3---3-0-3-|


 ---|   PM  PM      PM------------------------|
  E E E E E E E E   E S S S S S S E S S S S S S
|-----------------|-----------------------------|
|-----------------|-----------------------------|
|-----------------|-----------------------------|
|-----4---5---4-5-|-----------------------------|
|-----4---5---4-5-|-4---------------------------|
|-2-2---2---2-----|---5-5-5-5-5-5-3-6-6-6-6-6-6-|


 Chorus 2
  E5                           G   B     Bb                F         G
  Gtr I
  W                 +H          Q  Q     W                  H        H
|-----------------|--------------------|-----------------|-------------------|
|-----------------|--------------------|-----------------|-------------------|
|-----------------|--------------------|-----------------|-------------------|
|-2---------------|-(2)---------5--9---|-8---------------|--3--------5-------|
|-2---------------|-(2)----------------|-----------------|-------------------|
|-0---------------|-(0)---------3--7---|-6---------------|--1--------3-------|
|
| Gtr II
| PM|   PM  PM--|                        PM|   PM  PM--|
| E E E E E E E E    E   E E E  Q  E E   E E E E E E E E    E  E E E Q  E  E
|-----------------|--------------------|-----------------|-------------------|
|-----------------|--------------------|-----------------|-------------------|
|-----------------|--------------------|-----------------|-------------------|
|-----------------|--------------------|-----------------|-----------9--8----|
|-----7---8-------|-11--10-8-7-10--8-7-|-----7---8-------|-11-10-8-7------10-|
|-0-0---0---0-0-0-|--------------------|-0-0---0---0-0-0-|-------------------|


  E5                           G     B      Bb                B    G
  W                 +H         Q      Q     W                 H    H
|-----------------|-----------------------|-----------------|-----------|
|-----------------|-----------------------|-----------------|-----------|
|-----------------|-----------------------|-----------------|-----------|
|-2---------------|-(2)--------5------9---|-8---------------|-9----9----|
|-2---------------|-(2)-------------------|-----------------|-----------|
|-0---------------|-(0)--------3------7---|-6---------------|-7----7----|
|
| PM|   PM  PM--|                           PM|   PM  PM--|
| E E E E E E E E    E   E E E S S E  E E   E E E E E E E E   H    H
|-----------------|-----------------------|-----------------|-----------|
|-----------------|-----------------------|-----------------|-----------|
|-----------------|-----------------------|-----------------|-----------|
|-----------------|----------8-7h8p7------|-----------------|-9----5----|
|-----7---8-------|-11--10-8---------10-8-|-----7---8-------|-----------|
|-0-0---0---0-0-0-|-----------------------|-0-0---0---0-0-0-|-7----3----|


  E5                           G   B     Bb                F         G
  W                 +H          Q  Q     W                  H        H
|-----------------|--------------------|-----------------|-------------------|
|-----------------|--------------------|-----------------|-------------------|
|-----------------|--------------------|-----------------|-------------------|
|-2---------------|-(2)---------5--9---|-8---------------|--3--------5-------|
|-2---------------|-(2)----------------|-----------------|-------------------|
|-0---------------|-(0)---------3--7---|-6---------------|--1--------3-------|
|
| PM|   PM  PM--|                        PM|   PM  PM--|
| E E E E E E E E    E   E E E  Q  E E   E E E E E E E E    E  E E E Q  E  E
|-----------------|--------------------|-----------------|-------------------|
|-----------------|--------------------|-----------------|-------------------|
|-----------------|--------------------|-----------------|-------------------|
|-----------------|--------------------|-----------------|-----------9--8----|
|-----7---8-------|-11--10-8-7-10--8-7-|-----7---8-------|-11-10-8-7------10-|
|-0-0---0---0-0-0-|--------------------|-0-0---0---0-0-0-|-------------------|


  E5                                 G
  W                 +H.               Q     W
|-----------------|-----------------------|------|
|-----------------|-----------------------|------|
|-----------------|-----------------------|------|
|-2---------------|-(2)---------------5---|------|
|-2---------------|-(2)-------------------|------|
|-0---------------|-(0)---------------3---|------|
|
| PM|   PM  PM--|
| E E E E E E E E    E   E E E S S E  E E   W
|-----------------|-----------------------|------|
|-----------------|-----------------------|------|
|-----------------|-----------------------|------|
|-----------------|----------8-7h8p7------|------|
|-----7---8-------|-11--10-8---------10-8-|------|
|-0-0---0---0-0-0-|-----------------------|------|


   Interlude
    F5E5
    E Q  E Q     E  E    +E  E Q  E E E E
||---------------------|------------------|
||o--------------------|------------------|
||---------------------|------------------|
||---------------------|------------------|
||o--------------------|------------------|
||--1-0--3-0-----5--0--|-(0)-6-0--7-0-0-7-|
|
|   E H      +Q    +E    +W
||---------------------|------------------|
||o--------------------|------------------|
||---------------------|------------------|
||--3-2------(2)---(2)-|-(2)--------------|
||o-3-2------(2)---(2)-|-(2)--------------|
||--1-0------(0)---(0)-|-(0)--------------|


  1.
        PM    PM       PM     PM    PM|
   E  E E E E E E E    E  E E E E E E E
|-------------------|---------------------||
|-------------------|--------------------o||
|-------------------|---------------------||
|-------------------|---------------------||
|-------------------|--------------------o||
|--8--7-0-7-6-0-6-5-|--0--5-3-0-3-1-0-0---||
|
| +W                  +W
|-------------------|---------------------||
|-------------------|--------------------o||
|-------------------|---------------------||
|-(2)---------------|-(2)-----------------||
|-(2)---------------|-(2)----------------o||
|-(0)---------------|-(0)-----------------||


  2.
        PM    PM          PM      PM      PM|
   E  E E E E E  E  E     E   E E E  E  E E E
|---------------------|-----------------------|
|---------------------|-----------------------|
|---------------------|-----------------------|
|---------------------|-----------------------|
|---------------------|-----------------------|
|--8--7-0-7-6-0--6--5-|---0---5-3-0--3--1-0-0-|
|
|  H.            Q       +H          H
|---------------------|-----------------------|
|---------------------|-----------------------|
|---------------------|-----------------------|
|---------------------|-----------------------|
|---------------------|-----------------------|
|-24\-----------24\---|-(24)\-------24\-------|


    Gtrs I, II
                                           PM    PM      PM    PM    PM|
    E Q  E Q  E E   +E  E Q  E E E E   E E E E E E E E   E E E E E E E E
||----------------|------------------|-----------------|-------------------||
||o---------------|------------------|-----------------|------------------o||
||----------------|------------------|-----------------|-------------------||
||----------------|------------------|-----------------|-------------------||
||o---------------|------------------|-----------------|------------------o||
||--1-0--3-0--5-0-|-(0)-6-0--7-0-0-7-|-8-7-0-7-6-0-6-5-|-0-5-3-0-3-1-0-0---||


                                        1.
    PM------------------------------------------------------------------|
    E E E E E E E E   E E E E E E E E   E E E E E E E E   E E E E E E E E
||------------------|-----------------|-----------------|-------------------||
||o-----------------|-----------------|-----------------|------------------o||
||------------------|-----------------|-----------------|-------------------||
||------------------|-----------------|-----------------|-------------------||
||o-----------------|-----------------|-----------------|------------------o||
||--1-0-0-3-0-0-5-0-|-0-6-0-0-7-0-0-7-|-8-7-0-7-6-0-6-5-|-0-5-3-0-3-1-0-0---||


  2.
                            Bb5F5
                    PM----|
  E E E E E E E E   E E E E Q  Q
|-----------------|---------------|
|-----------------|---------------|
|-----------------|---------3-----|
|-----------------|---------3--3--|
|-----------------|---------1--3--|
|-8-7-0-7-6-0-6-5-|-0-5-3-0----1--|


   Bridge
    E5              E5              E5
             ~~              ~~              ~~     PM------------|
    Q.   E E Q.     Q.   E E Q.     Q.   E E Q.     E E E E E E E E
||----------------|---------------|---------------|------------------|
||o---------------|---------------|---------------|------------------|
||----------------|---------------|---------------|------------------|
||--2-------------|-2-------------|-2-------------|------------------|
||o-2----5--------|-2----5--------|-2----5--------|------------------|
||--0------3-1----|-0------3-1----|-0------3-1----|-1-0-0-3-0-0-5-0--|


                                  1.
  E5              E5              E5
           ~~              ~~              ~~     PM------------|
  Q.   E E Q.     Q.   E E Q.     Q.   E E Q.     E E E E E E E E
|---------------|---------------|---------------|------------------||
|---------------|---------------|---------------|-----------------o||
|---------------|---------------|---------------|------------------||
|-2-------------|-2-------------|-2-------------|------------------||
|-2----5--------|-2----5--------|-2----5--------|-----------------o||
|-0------3-1----|-0------3-1----|-0------3-1----|-5-0-0-1-0-0-3-0--||


  2.
                  PM------------|
  Q.   E E Q.     E E E E E E E E
|---------------|-----------------|
|---------------|-----------------|
|---------------|-----------------|
|-2-------------|-----------------|
|-2----5--------|-----------------|
|-0------3-1----|-5-0-0-1-0-0-3-4-|


 Guitar Solo
  A5                       F5
  Gtr I
   |------3------|
   H      H      H          W
|------------------------|--------------|
|-10-----10-----10-------|-10-----------|
|-13b15--13b15--13b15----|-13b15--------|
|------------------------|--------------|
|------------------------|--------------|
|------------------------|--------------|
|
| Gtr II
|  W                        W
|------------------------|--------------|
|------------------------|--------------|
|------------------------|--------------|
|--7---------------------|--3-----------|
|--7---------------------|--3-----------|
|--5---------------------|--1-----------|


   T    T    T    T    T    T
   S S  S S  S S  S S  S S  S S  Q      Q   H.
|------------------------------------|--------------------|
|------------------------------------|--------------------|
|-12p9-12p9-12p9-12p9-12p9-12p9------|--------------------|
|-------------------------------12---|-10---9-------------|
|------------------------------------|--------------------|
|------------------------------------|--------------------|
|
|  PM        PM--|          PM-----|        PM-|   PM   PM
|  E    E    E    E    E    E    E E    E E E  E E E  E E
|------------------------------------|--------------------|
|------------------------------------|--------------------|
|------------------------------------|--------------------|
|------------------------------------|--------------------|
|-------7--------------7-------------|-10p7------7---10---|
|--0---------0----0---------0----0-0-|------0--0---0----0-|


  A5                 F5
    PM|   PM|    PM    PM  PM   PM  PM
  E E E E E E  E E   E E E E  E E E E
|------------------|------------------|
|------------------|------------------|
|-9-----7-----10---|-9---7------------|
|---7-7---7-7----7-|---7---7-10-7-9-7-|
|------------------|------------------|
|------------------|------------------|
|
| W                  W
|------------------|------------------|
|------------------|------------------|
|------------------|------------------|
|-7----------------|-3----------------|
|-7----------------|-3----------------|
|-5----------------|-1----------------|


                         \1/
  S  S H       +E  Q     W
|----------------------|-------------------|
|----------------------|-------------------|
|----------------------|-------------------|
|-9h10p9-------(9)-7---|-6-----------------|
|----------------------|-------------------|
|----------------------|-------------------|
|
| PM     PM|    PM---|         PM|   PM  PM
| E    E E E E  E  E E   E   E E E E E E E
|----------------------|-------------------|
|----------------------|-------------------|
|----------------------|-------------------|
|----------------------|-------------------|
|------7-----7---------|-5h==7-----7---5---|
|-0------0-0----0--0-0-|-------0-0---0---0-|


  A5           F5
  +W           +Q   S S S S S S S S S S S S
|------------|------------------------------|
|------------|------------------------------|
|------------|------9-9-9-9-7-7-7-7-5-5-5-5-|
|-(6)--------|-(6)--------------------------|
|------------|------------------------------|
|------------|------------------------------|
|
|  W            W
|------------|------------------------------|
|------------|------------------------------|
|------------|------------------------------|
|--7---------|--3---------------------------|
|--7---------|--3---------------------------|
|--5---------|--1---------------------------|


  S S S S S S S S S S S S S S S S    W
|---------------------------------|--------------------|
|---------------------------------|--------------------|
|-7-7-7-7-9-9-9-9-7-7-7-7-5-5-5-5-|--7-----------------|
|---------------------------------|--------------------|
|---------------------------------|--------------------|
|---------------------------------|--------------------|
|
| PM      PM--|       PM------|          PM|   PM   PM
| E   E   E   E   E   E   E   E      E E E E E E  E E
|---------------------------------|--------------------|
|---------------------------------|--------------------|
|---------------------------------|--------------------|
|---------------------------------|--------------------|
|-----7-----------7---------------|-10p7-----7---10----|
|-0-------0---0-------0---0---0---|------0-0---0----0--|


  A5                F5
  PM--------|
  E E E E E E E E   W
|-------------5p0-|------|
|-----------------|-3----|
|-----------------|------|
|-------0-3-5-----|------|
|-0-2-3-----------|------|
|-----------------|------|
|
| W                 W
|-----------------|------|
|-----------------|------|
|-----------------|------|
|-7---------------|-3----|
|-7---------------|-3----|
|-5---------------|-1----|


                         \7
   |----------3----------|
   H         H           H           +W
|-12--------12----------12--------|-(12)--------------|
|-15b17-----15b17-------15b17-----|-(15)--------------|
|---------------------------------|-------------------|
|---------------------------------|-------------------|
|---------------------------------|-------------------|
|---------------------------------|-------------------|
|
|  PM---|         PM  PM              PM-----| ~
|  E    E E       E E E       E E     E  E E E Q  E E
|---------------------------------|-------------------|
|---------------------------------|-------------------|
|---------------------------------|-------------------|
|---------2---------3---------0h2-|-------------------|
|---------2---------3---------0h2-|-------------------|
|--0----0---------0---0-----------|---4--3-1-0-3--1-0-|


   +W                   +W
|-(12)---------------|-(12)----------------|
|-(15)---------------|-(15)----------------|
|--------------------|---------------------|
|--------------------|---------------------|
|--------------------|---------------------|
|--------------------|---------------------|
|
|   PM-|   PM  PM        PM-----| ~
|   E  E E E E E E E     E  E E E Q  E E
|--------------------|---------------------|
|--------------------|---------------------|
|--------------------|---------------------|
|--------2---3---0h2-|---------------------|
|--------2---3---0h2-|------------2--1-----|
|---0--0---0---0-----|---4--3-1-0------3---|


   +W                   +W
|-(12)---------------|-(12)-----------------|
|-(15)---------------|-(15)-----------------|
|--------------------|----------------------|
|--------------------|----------------------|
|--------------------|----------------------|
|--------------------|----------------------|
|
|   PM-|                 PM---|         PM---
|   E  E E E E E E E     E  E E E S S E E E
|--------------------|----------------------|
|--------------------|----------------------|
|--------------------|----------------------|
|--------2---3---0h2-|----------------------|
|--------2---3---0h2-|----------1-0h1p0-----|
|---0--0---0---0-----|---4--3-1---------3-1-|


                            G5     Bb5
   +W                   +W
|-(12)---------------|-(12)-------------|
|-(15)---------------|-(15)-------------|
|--------------------|------------------|
|--------------------|------------------|
|--------------------|------------------|
|--------------------|------------------|
|
|------|                 PM      PM
|   E  E E E E E E E     E  Q  E E Q  E
|--------------------|------------------|
|--------------------|------------------|
|--------------------|------------------|
|--------2---3---0h2-|------5--5---8--8-|
|--------2---3---0h2-|------5--5---8--8-|
|---0--0---0---0-----|---0--3--3-0-6--6-|


 Chorus 3
  E5                           G   B     Bb                F         G
  Gtr I
  W                 +H          Q  Q     W                  H        H
|-----------------|--------------------|-----------------|-------------------|
|-----------------|--------------------|-----------------|-------------------|
|-----------------|--------------------|-----------------|-------------------|
|-2---------------|-(2)---------5--9---|-8---------------|--3--------5-------|
|-2---------------|-(2)----------------|-----------------|-------------------|
|-0---------------|-(0)---------3--7---|-6---------------|--1--------3-------|
|
| Gtr II
| PM|   PM  PM--|                        PM|   PM  PM--|
| E E E E E E E E    E   E E E  Q  E E   E E E E E E E E    E  E E E Q  E  E
|-----------------|--------------------|-----------------|-------------------|
|-----------------|--------------------|-----------------|-------------------|
|-----------------|--------------------|-----------------|-------------------|
|-----------------|--------------------|-----------------|-----------9--8----|
|-----7---8-------|-11--10-8-7-10--8-7-|-----7---8-------|-11-10-8-7------10-|
|-0-0---0---0-0-0-|--------------------|-0-0---0---0-0-0-|-------------------|


  E5                           G     B      Bb                B    G
  W                 +H         Q      Q     W                 H    H
|-----------------|-----------------------|-----------------|-----------|
|-----------------|-----------------------|-----------------|-----------|
|-----------------|-----------------------|-----------------|-----------|
|-2---------------|-(2)--------5------9---|-8---------------|-9----5----|
|-2---------------|-(2)-------------------|-----------------|-----------|
|-0---------------|-(0)--------3------7---|-6---------------|-7----3----|
|
| PM|   PM  PM--|                           PM|   PM  PM--|
| E E E E E E E E    E   E E E S S E  E E   E E E E E E E E   H    H
|-----------------|-----------------------|-----------------|-----------|
|-----------------|-----------------------|-----------------|-----------|
|-----------------|-----------------------|-----------------|-----------|
|-----------------|----------8-7h8p7------|-----------------|-9----5----|
|-----7---8-------|-11--10-8---------10-8-|-----7---8-------|-----------|
|-0-0---0---0-0-0-|-----------------------|-0-0---0---0-0-0-|-7----3----|


  E5                           G   B     Bb                F         G
  Gtr I
  W                 +H          Q  Q     W                  H        H
|-----------------|--------------------|-----------------|-------------------|
|-----------------|--------------------|-----------------|-------------------|
|-----------------|--------------------|-----------------|-------------------|
|-2---------------|-(2)---------5--9---|-8---------------|--3--------5-------|
|-2---------------|-(2)----------------|-----------------|-------------------|
|-0---------------|-(0)---------3--7---|-6---------------|--1--------3-------|
|
| Gtr II
| PM|   PM  PM--|                        PM|   PM  PM--|
| E E E E E E E E    E   E E E  Q  E E   E E E E E E E E    E  E E E Q  E  E
|-----------------|--------------------|-----------------|-------------------|
|-----------------|--------------------|-----------------|-------------------|
|-----------------|--------------------|-----------------|-------------------|
|-----------------|--------------------|-----------------|-----------9--8----|
|-----7---8-------|-11--10-8-7-10--8-7-|-----7---8-------|-11-10-8-7------10-|
|-0-0---0---0-0-0-|--------------------|-0-0---0---0-0-0-|-------------------|


  E5                           G   B     Bb                  G5     Bb5
  Gtr I
                                                           PM     PM
  W                 +H          Q  Q     W                 E Q  E E Q  E
|-----------------|--------------------|-----------------|---------------|
|-----------------|--------------------|-----------------|---------------|
|-----------------|--------------------|-----------------|---------------|
|-2---------------|-(2)---------5--9---|-8---------------|---5--5---8--8-|
|-2---------------|-(2)----------------|-----------------|---5--5---8--8-|
|-0---------------|-(0)---------3--7---|-6---------------|-0-3--3-0-6--6-|
|
| Gtr II
| PM|   PM  PM--|                        PM|   PM  PM------|      PM
| E E E E E E E E    E   E E E  Q  E E   E E E E E E E E   E Q  E E Q  E
|-----------------|--------------------|-----------------|---------------|
|-----------------|--------------------|-----------------|---------------|
|-----------------|--------------------|-----------------|---------------|
|-----------------|--------------------|-----------------|---5--5---8--8-|
|-----7---8-------|-11--10-8-7-10--8-7-|-----7---8-------|---5--5---8--8-|
|-0-0---0---0-0-0-|--------------------|-0-0---0---0-0-0-|-0-3--3-0-6--6-|


                F5 F5  E5
  Gtrs I, II
  PM--------|
  S S E S S E E Q  E   E E Q  H
|--------------------|-------------*|
|--------------------|-------------*|
|--------------------|-------------*|
|---------------3--3-|-2-----------*|
|---------------3--3-|-2-----------*|
|-0-0-0-0-0-0---1--1-|-0-----------*|



Duration Legend
---------------
W - whole; H - half; Q - quarter; E - 8th; S - 16th; T - 32nd; X - 64th; a - acciaccatura
+ - note tied to previous; . - note dotted; .. - note double dotted
Uncapitalized letters represent notes that are staccato (1/2 duration)
Irregular groupings are notated above the duration line
Duration letters will always appear directly above the note/fret number it represents the
duration for.  Duration letters with no fret number below them represent rests.  Multi-
bar rests are notated in the form Wxn, where n is the number of bars to rest for.  Low
melody durations appear below the staff

Tablature Legend
----------------
 h   - hammer-on
 p   - pull-off
 b   - bend
 pb  - pre-bend
 r   - bend release (if no number after the r, then release immediately)
 /\  - slide into or out of (from/to "nowhere")
 s   - legato slide
 S   - shift slide
 - natural harmonic
[n]  - artificial harmonic
n(n) - tapped harmonic
 ~   - vibrato
 tr  - trill
 T   - tap
 TP  - trem. picking
 PM  - palm muting
\n/  - tremolo bar dip; n = amount to dip
 \n  - tremolo bar down
 n/  - tremolo bar up
/n\  - tremolo bar inverted dip
 =   - hold bend; also acts as connecting device for hammers/pulls
 <> - volume swell (louder/softer)
 x   - on rhythm slash represents muted slash
 o   - on rhythm slash represents single note slash

Misc Legend
-----------
 |  - bar
||  - double bar
||o - repeat start
o|| - repeat end
*|  - double bar (ending)
 :  - bar (freetime)
 $  - Segno
 &  - Coda
Tempo markers -  = BPM(8/16=s8/s16), where s8 = swing 8ths, s16 = swing 16ths
            
Submit corrections

comments powered by Disqus
↑ Back to top | Haunted Tabs for Bury Your Dead. Lyrics for acoustic guitar and electric guitar. Tablatures and chords are parodies/interpretations of the original songs. You may use it for private study, scholarship, research or language learning purposes only