» » »

Haunted, Bury Your Dead Bass tabs (ver.2)

Artists:  A B C D E F G H I J K L M N O P Q R S T U V W X Y Z # 

Bury Your Dead Bass tabs (ver.2)

Haunted Tabs
 Rating:
4/5 (4 votes)
Bury Your Dead lessons Tabs too difficult? Try these video lessons and learn fast
1
                Band- Haunted
Song- Bury Your Dead

F#||-------------------|------------------|------------------|
C#||-------------------|------------------|------------------|
G#||-------------------|------------------|------------------|
D#||--0----------------|------------------|------------------|


                                                             
-------------------|--------------------|-------------------|
-------------------|--------------------|-------------------|
-------------------|--------------------|-------------------|
--0----------------|----------3----7----|--6----------------|


                                                              
--------------------|-------------------|--------------------|
--------------------|-------------------|--------------------|
--------------------|-------------------|--------------------|
--1--------3--------|--0----------------|----------3----7----|


                                                             
-------------------|--------------------|-------------------|
-------------------|--------------------|-------------------|
-------------------|--------------------|-------------------|
--6----------------|--7--------7--------|--0----------------|


                                                              
--------------------|-------------------|--------------------|
--------------------|-------------------|--------------------|
--------------------|-------------------|--------------------|
----------3----7----|--6----------------|--1--------3--------|


                                                             
-------------------|--------------------|-------------------|
-------------------|--------------------|-------------------|
-------------------|--------------------|-------------------|
--0----------------|----------3----7----|--6----------------|


                                                                          
------------------------|---------------------|--------------------------|
------------------------|---------------------|--------------------------|
------------------------|---------------------|--------2-----3-----0--2--|
--0--3----3--0--6----6--|----------0--1----1--|--0--0-----0-----0--------|


                                                                               
-------------------------|--------------------------|-------------------------|
-------------------------|--------------------------|-------------------------|
-------------------------|--------2-----3-----0--2--|--------------2----1-----|
--4--3--1--0--3----1--0--|--0--0-----0-----0--------|--4--3--1--0----------3--|


                                                       
--------------------------|---------------------------|
--------------------------|---------------------------|
--------2-----3-----0--2--|-----------1--0h1h0--------|
--0--0-----0-----0--------|--4--3--1------------3--1--|


                                                                               
--------------------------|------------------------|--------------------------|
--------------------------|------------------------|--------------------------|
--------2-----3-----0--2--|------------------------|--------4-----5-----4--5--|
--0--0-----0-----0--------|--0--3----3--0--6----6--|--2--2-----2-----2--------|


                                                      
--------------------------|--------------------------|
--------------------------|--------------------------|
--4-----------1-----------|--------4-----5-----4--5--|
-----2--0--3-----3--0--3--|--2--2-----2-----2--------|


                                                      
--------------------------|--------------------------|
--------------------------|--------------------------|
--4-----------------------|--------4-----5-----4--5--|
-----5--5--5--3--6--6--6--|--2--2-----2-----2--------|


                                                      
--------------------------|--------------------------|
--------------------------|--------------------------|
--4-----------1-----------|--------4-----5-----4--5--|
-----2--0--3-----3--0--3--|--2--2-----2-----2--------|


                                                                    
--------------------------|-------------------|--------------------|
--------------------------|-------------------|--------------------|
--4-----------------------|-------------------|--------------------|
-----5--5--5--3--6--6--6--|--0----------------|----------3----7----|


                                                             
-------------------|--------------------|-------------------|
-------------------|--------------------|-------------------|
-------------------|--------------------|-------------------|
--6----------------|--1--------3--------|--0----------------|


                                                                  
--------------------|-------------------|------------------------|
--------------------|-------------------|------------------------|
--------------------|-------------------|------------------------|
----------3----7----|--6----------------|--0--3----3--0--6----6--|


                                                                                
--------------------------|-------------------------|--------------------------|
--------------------------|-------------------------|--------------------------|
--------2-----3-----0--2--|-------------------------|--------2-----3-----0--2--|
--0--0-----0-----0--------|--4--3--1--0--3----1--0--|--0--0-----0-----0--------|


                                                     
-------------------------|--------------------------|
-------------------------|--------------------------|
--------------2----1-----|--------2-----3-----0--2--|
--4--3--1--0----------3--|--0--0-----0-----0--------|


                                                                                
---------------------------|--------------------------|------------------------|
---------------------------|--------------------------|------------------------|
-----------1--0h1h0--------|--------2-----3-----0--2--|------------------------|
--4--3--1------------3--1--|--0--0-----0-----0--------|--0--3----3--0--6----6--|


                                                      
--------------------------|--------------------------|
--------------------------|--------------------------|
--------4-----5-----4--5--|--4-----------1-----------|
--2--2-----2-----2--------|-----2--0--3-----3--0--3--|


                                                      
--------------------------|--------------------------|
--------------------------|--------------------------|
--------4-----5-----4--5--|--4-----------------------|
--2--2-----2-----2--------|-----5--5--5--3--6--6--6--|


                                                      
--------------------------|--------------------------|
--------------------------|--------------------------|
--------4-----5-----4--5--|--4-----------1-----------|
--2--2-----2-----2--------|-----2--0--3-----3--0--3--|


                                                                          
--------------------------|--------------------------|-------------------|
--------------------------|--------------------------|-------------------|
--------4-----5-----4--5--|--4-----------------------|-------------------|
--2--2-----2-----2--------|-----5--5--5--3--6--6--6--|--0----------------|


                                                              
--------------------|-------------------|--------------------|
--------------------|-------------------|--------------------|
--------------------|-------------------|--------------------|
----------3----7----|--6----------------|--1--------3--------|


                                                             
-------------------|--------------------|-------------------|
-------------------|--------------------|-------------------|
-------------------|--------------------|-------------------|
--0----------------|----------3----7----|--6----------------|


                                                              
--------------------|-------------------|--------------------|
--------------------|-------------------|--------------------|
--------------------|-------------------|--------------------|
--7--------7--------|--0----------------|----------3----7----|


                                                             
-------------------|--------------------|-------------------|
-------------------|--------------------|-------------------|
-------------------|--------------------|-------------------|
--6----------------|--1--------3--------|--0----------------|


                                                                               
-------------------|------------------|--------------------|------------------|
-------------------|------------------|--------------------|------------------|
-------------------|------------------|--------------------|------------------|
--------------3----|------------------|--1--0--------------|------------------|


                                                                              
------------------|------------------|--------------------|------------------|
------------------|------------------|--------------------|------------------|
------------------|------------------|--------------------|------------------|
------------------|------------------|--1--0--------------|------------------|


                                                               
------------------|------------------|------------------------|
------------------|------------------|------------------------|
------------------|------------------|------------------------|
------------------|------------------|--1--0----3--0----5--0--|


                                                                               
------------------------|--------------------------|--------------------------|
------------------------|--------------------------|--------------------------|
------------------------|--------------------------|--------------------------|
----6--0----7--0--0--7--|--8--7--0--7--6--0--6--5--|--0--5--3--0--3--1--0--0--|


                                                                             
------------------------|------------------------|--------------------------|
------------------------|------------------------|--------------------------|
------------------------|------------------------|--------------------------|
--1--0----3--0----5--0--|----6--0----7--0--0--7--|--8--7--0--7--6--0--6--5--|


                                                      
--------------------------|--------------------------|
--------------------------|--------------------------|
--------------------------|--------------------------|
--0--5--3--0--3--1--0--0--|--1--0--0--3--0--0--5--0--|


                                                      
--------------------------|--------------------------|
--------------------------|--------------------------|
--------------------------|--------------------------|
--0--6--0--0--7--0--0--7--|--8--7--0--7--6--0--6--5--|


                                                      
--------------------------|--------------------------|
--------------------------|--------------------------|
--------------------------|--------------------------|
--0--5--3--0--3--1--0--0--|--1--0--0--3--0--0--5--0--|


                                                      
--------------------------|--------------------------|
--------------------------|--------------------------|
--------------------------|--------------------------|
--0--6--0--0--7--0--0--7--|--8--7--0--7--6--0--6--5--|


                                                                         
--------------------------|----------------------|----------------------|
--------------------------|----------------------|----------------------|
--------------------------|---------5------------|---------5------------|
--0--5--3--0--3--1--0--0--|--0---------3--1------|--0---------3--1------|


                                                                         
----------------------|--------------------------|----------------------|
----------------------|--------------------------|----------------------|
---------5------------|--------------------------|---------5------------|
--0---------3--1------|--1--0--0--3--0--0--5--0--|--0---------3--1------|


                                                                         
----------------------|----------------------|--------------------------|
----------------------|----------------------|--------------------------|
---------5------------|---------5------------|--------------------------|
--0---------3--1------|--0---------3--1------|--5--0--0--1--0--0--3--0--|


                                                                     
----------------------|----------------------|----------------------|
----------------------|----------------------|----------------------|
---------5------------|---------5------------|---------5------------|
--0---------3--1------|--0---------3--1------|--0---------3--1------|


                                                                         
--------------------------|----------------------|----------------------|
--------------------------|----------------------|----------------------|
--------------------------|---------5------------|---------5------------|
--1--0--0--3--0--0--5--0--|--0---------3--1------|--0---------3--1------|


                                                                      
----------------------|--------------------------|-------------------|
----------------------|--------------------------|-------------------|
---------5------------|--------------------------|-------------------|
--0---------3--1------|--5--0--0--1--0--0--3--4--|--5----------------|


                                                                            
-------------------|--------------------------|----------------------------|
-------------------|--------------------------|----------------------------|
-------------------|-----7--------7-----------|--10--7--------7-----10-----|
--1----------------|--0-----0--0-----0--0--0--|---------0--0-----0------0--|


                                                                   
-------------------|-------------------|--------------------------|
-------------------|-------------------|--------------------------|
-------------------|-------------------|-----7--------7-----------|
--5----------------|--1----------------|--0-----0--0-----0--0--0--|


                                                                   
--------------------------|-------------------|-------------------|
--------------------------|-------------------|-------------------|
--5--7--------7-----5-----|-------------------|-------------------|
--------0--0-----0-----0--|--5----------------|--1----------------|


                                                                            
--------------------------|----------------------------|-------------------|
--------------------------|----------------------------|-------------------|
-----7--------7-----------|--10--7--------7-----10-----|-------------------|
--0-----0--0-----0--0--0--|---------0--0-----0------0--|--5----------------|


                                                                         
-------------------|--------------------------|-------------------------|
-------------------|--------------------------|-------------------------|
-------------------|--------2-----3-----0--2--|-------------------------|
--1----------------|--0--0-----0-----0--------|--4--3--1--0--3----1--0--|


                                                                                
--------------------------|-------------------------|--------------------------|
--------------------------|-------------------------|--------------------------|
--------2-----3-----0--2--|--------------2----1-----|--------2-----3-----0--2--|
--0--0-----0-----0--------|--4--3--1--0----------3--|--0--0-----0-----0--------|


                                                                                
---------------------------|--------------------------|------------------------|
---------------------------|--------------------------|------------------------|
-----------1--0h1h0--------|--------2-----3-----0--2--|------------------------|
--4--3--1------------3--1--|--0--0-----0-----0--------|--0--3----3--0--6----6--|


                                                             
-------------------|--------------------|-------------------|
-------------------|--------------------|-------------------|
-------------------|--------------------|-------------------|
--0----------------|----------3----7----|--6----------------|


                                                              
--------------------|-------------------|--------------------|
--------------------|-------------------|--------------------|
--------------------|-------------------|--------------------|
--1--------3--------|--0----------------|----------3----7----|


                                                             
-------------------|--------------------|-------------------|
-------------------|--------------------|-------------------|
-------------------|--------------------|-------------------|
--6----------------|--7--------3--------|--0----------------|


                                                              
--------------------|-------------------|--------------------|
--------------------|-------------------|--------------------|
--------------------|-------------------|--------------------|
----------3----7----|--6----------------|--1--------3--------|


                                                             
-------------------|--------------------|-------------------|
-------------------|--------------------|-------------------|
-------------------|--------------------|-------------------|
--0----------------|----------3----7----|--6----------------|


                                                                         
------------------------|--------------------------|-------------------||
------------------------|--------------------------|-------------------||
------------------------|--------------------------|-------------------||
--0--3----3--0--6----6--|--0-0-0--0-0-0----1----1--|--0----------------||
            
Submit corrections

comments powered by Disqus
↑ Back to top | Haunted Bass for Bury Your Dead. Lyrics for acoustic guitar and electric guitar. 1 Tablatures and chords are parodies/interpretations of the original songs. You may use it for private study, scholarship, research or language learning purposes only