» » »

Haunted, Bullet Hole Tabs (ver.1)

Artists:  A B C D E F G H I J K L M N O P Q R S T U V W X Y Z # 

Bullet Hole Tabs (ver.1)

Haunted Tabs
Rating:
5/5 (1 vote)
Bullet Hole lessons Tabs too difficult? Try these video lessons and learn fast
                             T H E  H A U N T E D  -  B U L L E T  H O L E
                       From the Album THE HAUNTED
                     Copyright 1998 EARACHE RECORDS

                         Version 2.0 - JUNE '02

Version 1.1 by: death8699
Version 2.0 by: SyM-UNDEAD & Juan P
      Solos by: SyM-UNDEAD

For Questions, Comments, Newest Version, or Corrections contact





.  - palm mute                  /  - slide up to
\  - slide down to              ~  - vibrato
"  - tremelo picking           ( ) - ghost note
b  - bend                       h  - hammer-on
fb - full bend (1 step)         p  - pull-off
hb - half bend (1/2 step)       r  - release a bend
t  - tapping                    ah - artificial harmonic

Tune every string down 1/2 step

--BULLET HOLE--

[Intro]
[---------------------------|-------------------------]
[---------------------------|-------------------------]
[*--------------------------|------------------------*] GTR I
[*------------------7-6_7_6-|------------------------*] Anders
[--7--8-5-7--7--8-5----h-p--|-7--8-5-7----------------]
[---00-0-0-00-00-0-0--------|--00-0-0-0-8-7-5-4-5-4~--]
    .. . . .. .. . .           .. . . . . . . . . 
 
[-----------------------------------------------------]
[-----------------------------------------------------]
[*---------------------------------------------------*] GTR II
[*-------------------------------------5-4-----------*] Jensen
[--------------------------------------3-2-7-6--------]
[------------------------------------------5-4-5-4~---]
                                       . . . . . .

[---------------------------]
[---------------------------]
[*-------------------------*]GTR 1 
[*-------------------7-6---*]
[--7--8-5-7--7--8-5--7-6----]
[---00-0-0-00-00-0-0-5-4----]
    .. . . .. .. . .   *

[---------------------------]
[---------------------------]
[*-------------------------*]GTR 2 
[*-2------2------2---7-6---*]
[--2------2------2---7-6----]
[--0------0------0---5-4----]
                       *


[Next]
[---------------------------|------------------------]
[---------------------------|------------------------]
[*--------------------------|-----------------------*]BOTH
[*------------------7-6_7_6-|-----------------------*]GTR'S
[--7--8-5-7--7--8-5----h-p--|-7--8-5-7---------------]
[---00-0-0-00-00-0-0--------|--00-0-0-0-8-7-5-4-5-4~-]
    .. . . .. .. . .           .. . . . . . . . .    .

[---------------------------|------------------------]
[---------------------------|------------------------]
[*--------------------------|-----------------------*]BOTH
[*------------------7-6_7_6-|-----------5-4---------*]GTR'S
[--7--8-5-7--7-8-5-----h-p--|7---8-5-7--3-2-7-6------]
[---00-0-0-00-0-0-0---------|--00-0-0-0-----5-4------]
    .. . . .. . . .            .. . . . 


[Riff A] 
[-------------------------|---------------------------]
[-------------------------|---------------------------]
[*------------------------|--------------------------*]BOTH 
[*------------------------|--------------------------*]GTR'S
[--7--8-5-7---------------|-7--8-5-7------------------]
[---00-0-0-0-000-00-000-0-|--00-0-0-0-8-7-5-4-5-4~(0)-]
    .. . . . ... . . ... .    .. . . . . . . . .  

[-------------------------|---------------------------]
[-------------------------|---------------------------]
[*------------------------|--------------------------*]BOTH 
[*------------------------|--------------------------*]GTR'S
[--7--8-5-7---------------|-7--8-5-7------------------]
[---00-0-0-0-000-00-000-0-|--00-0-0-0-8-7-5-4-5-4~(0)-]
    .. . . . ... . . ... .    .. . . . . . . . .  


[Riff B]                                              
[-----------------|----------------|-----------------]
[-----------------|----------------|-----------------]
[*----------------|----------------|----------------*]BOTH
[*---2-----1------|---2-----3------|---2-----1------*]GTR'S 
[----2-----1------|---2-----3------|---2-----1-------]
[--0---0-0---0431-|-0---0-0---0532-|-0---0-0---0431--]
   .   . .   ....   .   . .   ....   .   . .   ....
 _________________  ________________          
|1.                |2.              |       
[------------------|----------------]
[------------------|----------------]
[*-----------------|---------------*]BOTH
[*-----------------|---------------*]GTR'S 
[----3-3----5-7/8--|-2-5---5-4-3(3)-]
[--0---1--0-3-5/6--|-0-3-0-3-2-1(1)-]
   .      .    sl        .     

Play Riff A once
Play Riff B once (Last time, second ending sub Fill 1)


[Fill 1]
[--------------------]
[--------------------]
[*------------------*]BOTH
[*------------------*]GTR'S
[----------2-(2)-----]
[--0-4-3-1-0-(0)-----]
   . . . . 

[Riff C]
[----------------------------------|----------------------------------]
[----------------------------------|----------------------------------]
[*-----------------7-9-10----------|-----------------7-9-10----------*]BOTH
[*-------------------------9\8-5/--|-------------------------9\8-5\4-*]GTR'S
[--2-2-2-2-2-2-2-2-5-7-8-----------|-2-2-2-2-2-2-2-2-5-7-8------------]
[--0-0-0-0-0-0-0-0-------0-7\6-3/--|-0-0-0-0-0-0-0-0-------0-7\6-3\2--]
   * . . . . . . .       .  sl  sl   . . . . . . . .       .  sl  sl

[----------------------------------|---------------------------------]
[----------------------------------|---------------------------------]
[*---------------------------------|--------------------------------*]BOTH
[*---------------------------------|--------------------------------*]GTR'S
[--4/5-4-----3---4/5\4/5---7/8\7\5-|-4------3----4/5\4/5---------(2)-]
[--2/3-2-2-2---2-2/3\2/3-0-5/6\5\3-|-2--2-2---2--2/3\2/3-0-6-5-3-(0)-]
    sl   . .   .  sl's   .  sl's        . .   .   sl's   . . . . 


2nd time, different ending :

[--------------]
[--------------]
[--------------]BOTH
[--------------]GTR'S
[--------------]
[--0-6-5-3~(0)-]
   . . .    p    
        
                      

[Riff D]                      
[--------------------------|---------------------------]
[--------------------------|---------------------------]
[*-------------------------|--------------------------*]BOTH
[*-------------------------|--------------------------*]GTR'S
[--2-----5---5-------------|-2-------2-----5---5-------]
[--0-0-0-6-0-5-0-1_0-0-0-0-|-0-0-0-0-0-0-0-6-0-5-0-1_0-]    
     . .   .   .  p  . . .     . . .   . .   .   .  p
 __________________ ________________
|1.                |2.              |
[------------------|----------------]
[------------------|----------------]
[*-----------------|---------------*]BOTH
[*-----------------|-5---4---------*]GTR'S
[------------------|-3---2---7---6--]
[--8-7-5-4-5-4~(0)-|---------5---4--]    
   . . . . .   

LEAD on Riff D
[----------------------------------------|-----------------------------------------------------]
[----12"-11"-----------------------------|---------------------------------------------17-16~--]
[*-9"-------11"-12"-8"-9"-11"-9"-12"-11~-|-12_11-12~--14_12-14~--15-15-14_15_14--15_14--------*]
[*---------------------------------------|---p----------p----------------h--p--15--p----------*]GTR 3
[----------------------------------------|------------------------|not sure about this part|---]
[----------------------------------------|-----------------------------------------------------]
|                                        |                                                     |
[----------------------------------------|-----------------------------------------------------]
[----------------------------------------|-----------------------------------------------------]
[----------------------------------------|-----------------------------------------------------]
[----------------------------------------|-14_13-14~--16_14-16~--------------------------------]GTR 4
[----------------------------------------|---p----------p--------------------------------------]
[----------------------------------------|-----------------------------------------------------]


Play Riff A once
Play Riff B once
Play Riff C 2 times


[Riff E] 
[-------------------------|------------------------]
[-------------------------|------------------------]
[*-4--------4--------4----|-3--------3--------3-3-*]BOTH
[*-2--------2--------2----|-2--------2--------2-2-*]GTR'S
[--2--------2--------2----|-1--------1--------1\0--]
[--0--0--0--0--0--0--0--0-|-0--0--0--0--0--0--0-0--]
      .  .     .  .     .      .  .     .  .   sl

[-------------------------|------------------------]
[-------------------------|------------------------]
[*-4--------4--------4----|-3--------3--------3-3-*]BOTH
[*-2--------2--------2----|-2--------2--------2-2-*]GTR'S
[--2--------2--------2----|-1--------1--------1\0--]
[--0--0--0--0--0--0--0--0-|-0--0--0--0--0--0--0-0--]
      .  .     .  .     .      .  .     .  .   sl

[-------------------------|------------------------]
[-------------------------|------------------------]
[*------------------------|-6--------6--------6-6-*]BOTH
[*-5--------5--------5----|-5--------5--------5-5-*]GTR'S
[--5--------5--------5----|-4--4--4--4--4--4--4\3--]
[--3--3--3--3--3--3--3--3-|-3--3--3--3--3--3--3-3--]
      .  .     .  .     .      .  .     .  .   sl
 _________________________ ________________________
|1.                       |2.                      |
[-------------------------|------------------------]
[-------------------------|------------------------]
[*-----------------6------|-----------------------*]BOTH
[*-5-----5-----5---5------|-5-----5---------------*]GTR'S
[--5-----5-----5---4------|-5-----5------454-------]
[--3-3-3-3-3-3-3-3-3------|-3-3-3-3-3-0-3---65352~-]
     . .   . .   .            . .   . . 


[Riff F]
[---------------------------|--------------------------------]
[---------------------------|--------------------------------]
[*--------------------------|-------------------------------*]BOTH
[*-2-----2-2-----8-----8-8--|----2-----2-2-----8-----8-8----*]GTR'S
[--2-----2-2-----8-----7-7--|----2-----2-2-----8-----7-7-----]
[--0--0--0-0--0--6--6--6-6--|-0--0--0--0-0--0--6--6--6-6--0--]
      .       .     .         .     .       .     .       .

[---------------------------|--------------------------------]
[---------------------------|--------------------------------]
[*---------------6-----6-6--|-------------------------------*]BOTH
[*-5-----5-5-----6-----5-5--|----5-----5-5------------------*]GTR'S
[--5-----5-5-----4--4--4-4--|----5-----5-5---4-5-4-----------]
[--3--0--3-3--0-------------|-0--3--0--3-3-0-------653532_0--]
      .       .     .         .     .      .             p

Play Riff F once


[Riff G]
[--------------------------|------------------------]
[--------------------------|------------------------]
[*-------------------------|----------7----------$-*]GTR 1
[*-------------------------|----------7------------*]
[--7--8-5-7--8-7-5---------|-7--8-5-7-5-------------]
[---00-0-0---------8-7-5-4-|--00-0-0--*-------------]
    .. . .                    .. . .

* Hold until $

[--------------------------|--------------------78--]
[--------------------------|-----------------910----]
[*----------10-9-7---------|------------7910-------*]GTR 2
[*----------------10-9-7-6-|-----------------------*]
[--7--8-5-7----------------|-7--8-5-7-7-------------]
[---00-0-0-----------------|--00-0-0----------------]
    .. . .                    .. . .

Play Riff G 3 times


[Lead] on Riff G (over 3rd and 4th time)
[-----------------------------------------------]
[-----------------------------------------------]
[*-9~-10~-9~-7---------------------------------*]
[*-------------10-9-7_6-6~--6-7-9\10-9-7-6-6---*] GTR 3
[--------------------p-----------sl--------8-7--]
[--------------------------------------------0--]

    
[Riff H]             
[------------------|-------------------]
[------------------|-------------------]
[*-----------------|------------------*]BOTH
[*-----------------|------------------*]GTR'S
[--222-222-222-222-|-333333-33333-333--]
[--000-000-000-000-|-111111-11111-111--]
   ... ... ... ...   ...... ..... ...

[------------------|-------------------]
[------------------|-------------------]
[*-----------------|------------------*]BOTH
[*-----------------|------------------*]GTR'S
[--222-222-222-222-|-333333-33333-333--]
[--000-000-000-000-|-111111-11111-111--]
   ... ... ... ...   ...... ..... ...

LEAD on Riff H
[--------------------------------------------------------------------------]
[--------------------------------------------------------------------------]
[*-7fb(9)~--10p9-10~--10-9-7--------------------*-------------------------*]GTR 3
[*---------------------------10-9-7-6-7-6~---7-6-7fb(9)--\dive with whammy*]
[--------------------------------------------------------------------------]
[--------------------------------------------------------------------------]

[--------------------------------------------------------------------------]
[--------------------------------------------------------------------------]
[*-------------------10-9-7-----------------------------------------------*]GTR 4
[*-------------------------10-9-7-9-10-9~--10-9-10fb(12)-\dive with whammy*]
[--------------------------------------------------------------------------]
[--------------------------------------------------------------------------]
                         

[Riff I]                         
[-----------------------|------------------------]
[-----------------------|------------------------]
[*----------------------|-----------------------*]BOTH
[*----------------------|-----------------------*]GTR'S
[----8---7---10---8---7-|-8_7-8-8~-----8--7---10-]
[--0---0---0----0---0---|--p---------0--0---0----]
   .   .   .    .   .                .  .   .
 _______________________ ________________________
|1-3.                   |4.                      |
[-----------------------|------------------------]
[-----------------------|------------------------]
[*----------------------|-----------------------*]BOTH
[*----------------------|-5----6----6----5----3-*]GTR'S
[----11--10-11_10-11_10-|-5----6----6----5----3--]
[--0---0------p-----p---|-3----4----4----3----1--]
   .   .                              


Play Riff C 2 times
Play Riff H 1/2 time


[Riff H.2]
[------------------|---------------------------]
[------------------|---------------------------]
[*-----------------|--------------------------*]BOTH
[*-----------------|--------------------------*]GTR'S
[--222-222-222-222-|-3333333-3~-33333-3~-33-3~-]
[--000-000-000-000-|-1111111-ah-11111-ah-11-ah-]
   ... ... ... ...   .......    .....    ..


Play Riff I once


[End]
[-----]
[-----]
[*---*]BOTH
[*-2-*]GTR'S
[--2--]
[--0--]

THRASH IT UP !
            

comments powered by Disqus
↑ Back to top | Haunted Tabs for Bullet Hole. Lyrics for acoustic guitar and electric guitar. Tablatures and chords are parodies/interpretations of the original songs. You may use it for private study, scholarship, research or language learning purposes only