» » »

Haunted, Blood Rust Tabs (ver.1)

Artists:  A B C D E F G H I J K L M N O P Q R S T U V W X Y Z # 

Blood Rust Tabs (ver.1)

Haunted Tabs
 Rating:
4/5 (4 votes)
Blood Rust lessons Tabs too difficult? Try these video lessons and learn fast
1
                                         THE HAUNTED - BLOOD RUST
                            From "The Haunted"            



For Questions, Comments, Corrections, Requests

Check out The Reaper's Metal Tablature Archive at

.  - palm mute                          /  - slide up to
\  - slide down to                      ~  - vibrato
"  - tremelo picking                    () - ghost note
p  - pull off                           h  - hammer-on 
tr - trill notes                        fb - full bend (1step)
< > - harmonic

The Haunted - Blood Rust

Tuned 1/2 step down (EbAbDbGbBbEb)

Intro
|------------------------------------------------------------------|
|------------------------------------------------------------------|
|-10-10-9-----10-9-----10-9---------------10-9-----10-9-----10-9---|
|------------------------------------------------------------------|
|-8--8--7---8-8--7---8-8--7-------------8-8--7---8-8--7---8-8--7---|
|---------0--------0--------0-000-000-0--------0--------0----------|
          . .      . .      . ... ... . .      . .      . .

|------------------------------------------------------------------|
|------------------------------------------------------------------|
|------------------------------------------------------------------|
|------------------------------------------------------------------|
|------------------------------------------------------------------|
|-0-000-000--------------------------------------------------------|
  . ... ...

Riff A
|------------------------------------------------------------------|
|------------------------------------------------------------------|
|-10\9----10\9----10\9---------------------------------------------|
|------------------------------------------------------------------|
|-8-\7----8-\7----8-\7---------------------------------------------|
|------00------00------0-000---------------------------------------|
|      ..      ..      . ...                                       |
| I didn't bother with the getting the timing between the guitars  |
| here correct.                                                    |
|------------------------------------------------------------------|
|------------------------------------------------------------------|
|------------------------------------------------------------------|
|----------3--------4----------------------------------------------|
|-2--3--2-----2--3--2-5-3------------------------------------------|
|-0--1--0--1--0--1----3-1------------------------------------------|

Riff B

|------------------------------------------------------------------|
|------------------------------------------------------------------|
|------------------------------------------------------------------|
|-10\9----10\9----10\9---------------------------------------------|
|-8-\7-77-8-\7-77-8-\7---------------------------------------------|
|----------------------0-000---------------------------------------|
       ..      ..      . ...

Riff C
|------------------------------------------------------------------|
|------------------------------------------------------------------|
|------------------------------------------------------------------|
|------------------------------------------------------------------|
|-3/4----4/5----8----8-7------3/4----4/5----8----4p2-4p1-----------|
|-1/2-22-2/3-33-6-66-6-5-555--1/2-22-2/3-33-6-66-------------------|
      ..     ..   ..     ...      ..     ..   ..

Riff D
|------------------------------------------------------------------|
|------------------------------------------------------------------|
|------------------------------------------------------------------|
|------------------------------------------------------------------|
|-----5-7p6---7h10----10p9------5-7p6---7h10----10p9~--------------|
|-000-------0------00-------000-------0------00--------------------|
  ...       .      ..       ...       .      ..

Riff E
|------------------------------------------------------------------|
|------------------------------------------------------------------|
|------------------------------------------------------------------|
|----7--5--------7--5-----7--5-------7-8---------------------------|
|-2--5--3-----2--5--3--2--5--3-------5-6---------------------------|
|-0-------3~--0--------0--------3~-0-------------------------------|
                                   .

Riff F
|------------------------------------------------------------------|
|------------------------------------------------------------------|
|------------------------------------------------------------------|
|------------------------------------------------------------------|
|-5\4----5\4----5\4------------------------------------------------|
|-3\2-22-3\2-22-3\2-2-222------------------------------------------|
      ..     ..     . ...

Riff G   
|------------------------------------------------------------------|
|------------------------------------------------------------------|
|------------------------------------------------------------------|
|-----------4/5----5-----------------------------------------------|
|-2----2----2/3-33-3-33-5----5----9-5-3-3--------------------------|
|-0-00-0-00-------------3-33-3-33-7-3-2-1--------------------------|
    ..   ..     ..   ..   ..   ..   . .

The 2nd time you play riff G you add Gb6 F6 to the end

Solo (played over Riff G)
|------------------------------------------------------------------|
|------------------------------------------------------------------|
|-9~-9/11-12p11-12p11-9/11-12p11-14p12-16p14-17b-16~---19h21--16~--|
|------------------------------------------------------------------|
|------------------------------------------------------------------|
|------------------------------------------------------------------|

|------------------------------------------------------------------|
|---------------------------------------------------15fbr-15-------|
|-16-14-12-11-12-11-9h11--12p9-9~--14p9-9~-16p9-9~-----------12p9--|
|------------------------------------------------------------------|
|------------------------------------------------------------------|
|------------------------------------------------------------------|

|-------------------------------------------7-12-7-12-7------------|
|-------------------------------------8---8-------------8---8------|
|-9~--14p9-9~--16-14~---------------9---9-----------------9---9----|
|---------------------------------9--------------------------------|
|---------------------14br------7----------------------------------|
|-----------------------------7------------------------------------|

|------------------------------------------------------------------|
|-8----------------------------------------------------------------|
|---9--------------------------------------------------------------|
|--------9br--9"-10"--9"-7"--9"-7"--5"-4"--5"-4"--2"-4~------------|
|-----7~-----------------------------------------------------------|
|------------------------------------------------------------------|

Solo finishes and the chorus comes in, the 2nd guitar plays (2x)
|------------------------------------------------------------------|
|------------------------------------------------------------------|
|-9~--7h9~--9h11h12-9~---11~-11~--9~-------------------------------|
|------------------------------------------------------------------|
|------------------------------------------------------------------|
|------------------------------------------------------------------|
            
Submit corrections

comments powered by Disqus
↑ Back to top | Haunted Tabs for Blood Rust. Lyrics for acoustic guitar and electric guitar. 1 Tablatures and chords are parodies/interpretations of the original songs. You may use it for private study, scholarship, research or language learning purposes only