» » »

Haunted, Bloodletting Tabs (ver.1)

Artists:  A B C D E F G H I J K L M N O P Q R S T U V W X Y Z # 

Bloodletting Tabs (ver.1)

Haunted Tabs
Rating:
0/5 (0 votes)
Hard to play? Try these video lessons and learn fast.
                Band- Haunted
Song- Bloodletting

Tuning: Eb

Intro:
|-------------------------------|
|-------------------------------|
|-------------------------------|
|-------------------------------|
|-------------------------------|
|--000-0-000-0-000-0-000-00-00--|

Riff A x4                         a2               a3 [2,4]
|--------------------------------||----------------|------|
|--------------------------------||----------------|------|
|--------------------------------||----------------|------|
|--------------------------------||----------------|------|
|--1---2-----1---2-----1---2-----||----------------|------|
|--2---3-000-2---3-000-2---3-000-||-3-2-0--3-0-4-0-|-5-6--|
         ...       ...       ...
*a3 is the ending every other time*

Riff B
|---------------------------------------------------------------------|
|---------------------------------------------------------------------|
|----------------------r----------------------r-----------------------|
|----------------------e----------------------e-----------------------|
|----------------------s----------------------s-----------------------|
|-0000-0-0000-0-0000-0-t-0000-0-0000-0-0000-0-t-0000-0-0000-0-0000-0--|
  .... . .... . .... .   .... . .... . .... .   .... . .... . .... .

Riff C x3         c2
|----------------|----------------------------|
|----------------|----------------------------|
|----------------|----------------------------|
|----------------|----------------------------|
|----------------|-2222---2222---1111---2222--|
|-0000-0-0000-0--|-3333-0-3333-0-2222-0-1111--|
  .... . .... .

Fill 1
|------------------------|
|------------------------|
|------------------------|
|--3h4--1h2--------------|
|------------3h4--3-2-0--|
|------------------------|

Verse x2
|-------------------------------------------------|
|-----4--0-----4--0-----4--0----------------------|
|--3--------3---------3---------------------------|
|-------------------------------1-----------------|
|-------------------------------3---5---4---------|
|-------------------------------3-1-6-1-5--8-7-5--|
                                  .   .    . . .

|----------------------------------------------------|
|-----4--0-----4--0----------------------------------|
|--3--------3---------4/5-4--0-2---------------------|
|---------------------------------1------------------|
|---------------------2/3-2--2-2--3---5---4----------|
|---------------------------------3-1-6-1-5-0-8-7-5--|
                                    .   .   . . . .

|-----------------------|
|-----------------------|
|-----------------------|
|-----------------3--1--|
|--1/6--1/6--1/6--3--2--|
|--1/7--1/7--1/7--1-----|

Play Fill 1, then the first of about four solos:

Solo 1
|------------------------------------------------------------------------------|
|--11--10h11-10--11-10-7-10-9-6-7--6-7-9-11--17-15-14-15--17-15-14-15-17-15-14-|
|------------------------------------------------------------------------------|
|------------------------------------------------------------------------------|
|------------------------------------------------------------------------------|
|------------------------------------------------------------------------------|

|-------------------------|
|--13-12-10--12-13-12-11--|
|-------------------------|
|-------------------------|
|-------------------------|
|-------------------------|

Play the verse once and then:

Solo 2
|--11-11--11-13-14-18---14-18-14--------------------------|
|---------------------------------18-19-18---------15/18--|
|-------------------------------------------16-17---------|
|---------------------------------------------------------|
|---------------------------------------------------------|
|---------------------------------------------------------|

Riff D
|-----------------------------|
|-----------------------------|
|--------------------------10-|
|--3--9--10--6---3--9--10--10-|
|--3--9--10--6---3--9--10--8--|
|--1--7--8---4---1--7--8------|

Solo 3
|-------------3--2---10h11h11h11h11h11--9h10h10h10--11/10-10-11-10-11--12/11-13--|
|--5/4--4--5---------------------------------------------------------------------|
|--------------------------------------------------------------------------------|
|--------------------------------------------------------------------------------|
|--------------------------------------------------------------------------------|
|--------------------------------------------------------------------------------|

Then Fill 2:
|--------------------|--------|
|--------------------|--------|
|--------------------|--------|
|--3h4--1h2----------|--------|
|------------3h4--3--|--1--0--|
|--------------------|--2--1--|

Then the last Solo:

Solo 4
|--------------------------|------|--11/10-11-13------------------------|
|--4--5--4-----------------|------|---------------11-14-11--6-7-6--5-4--|
|-----------5-6-5-3--3-6/4-|-play-|-------------------------------------|
|--------------------------|--a2--|-------------------------------------|
|--------------------------|------|-------------------------------------|
|--------------------------|------|-------------------------------------|

|--6/3-3----------------------------------------------------------------|
|--------5-4-2-4------------------------------17-14-17-13-10--13-12-10--|
|-----------------5-3-5-7-5/3--r----------------------------------------|
|------------------------------e--3/////23-24---------------------------|
|------------------------------s----------------------------------------|
|------------------------------t----------------------------------------|
                 ^did this part best I could, suggestions always welcome^

Riff B
Riff C and c2 until finish
            

comments powered by Disqus
↑ Back to top | Haunted Tabs for Bloodletting. Lyrics for acoustic guitar and electric guitar. Tablatures and chords are parodies/interpretations of the original songs. You may use it for private study, scholarship, research or language learning purposes only