» » »

Haunted, Abysmal Tabs (ver.3)

Artists:  A B C D E F G H I J K L M N O P Q R S T U V W X Y Z # 

Abysmal Tabs (ver.3)

Haunted Tabs
 Rating:
4/5 (4 votes)
Abysmal lessons Tabs too difficult? Try these video lessons and learn fast
1
                
ABYSMAL
As recorded by The Haunted
(From the 2004 Album REVOLVER)

        

Words by Peter Dolving Music by Anders Björler & Peter Dolving

Gtr I (D G C F A D) - 'Clean'
Gtr II (D G C F A D) - 'Distorted Left'
Gtr III (D G C F A D) - 'Distorted Right'
Gtr IV (D G C F A D) - 'Solo Guitar'
Gtr V (D G C F A D) - 'Distorted Center'
Gtr VI (D G C F A D) - 'Distorted Center'

 Intro
  Q=125
  N.C.(E)
 4/4
  Gtr I
  Q  E E E E E E   E E E E E E E E   Q  E E E E E E   E E E E E E E E
|----------------|-------0---------|----------------|-------0---------||
|----0---------0-|---------0-------|----0---------0-|---------0-------||
|------0-3-0-----|-3-0-------3-0---|------0-3-0-----|-3-0-------3-0---||
|----------------|-----------------|----------------|-----------------||
|----------------|-----------------|----------------|-----------------||
|-0----------0---|-----0---------0-|-0----------0---|-----0---------0-||


 Verse
  N.C.(E)
  Q  E E E E E E   E E E E E E E E     Q  E E E E E E   E E E E E E E E
|----------------|-------0---------||-----------------|-------0---------|
|----0---------0-|---------0-------||o----0---------0-|---------0-------|
|------0-3-0-----|-3-0-------3-0---||-------0-3-0-----|-3-0-------3-0---|
|----------------|-----------------||-----------------|-----------------|
|----------------|-----------------||o----------------|-----------------|
|-0----------0---|-----0---------0-||--0----------0---|-----0---------0-|


  1.,2.                                3.
  N.C.(G)           N.C.(F)             N.C.(E)
  E E E E E E E E   E E E E E E E E  3x Q  E E E E E E   +H.      +E  E
|-----3-----3-----|------------------||--------------0-|-(0)------(0)---||
|-----------------|-----0-----0-----o||----0---------0-|-(0)------(0)---||
|---3-----3-----3-|------------------||------0-3-0-----|----------------||
|-----------------|------------------||----------------|----------------||
|-----------------|---2-----2-----2-o||----------------|----------------||
|-3-----3-----3---|-1-----1-----1----||-0----------0---|--------------0-||


  N.C.(E)
  E E E E E E E E   E E E E E E E E   E E E E E E E E   E E E E E E E E
|-----0-----0-----|-0-----0-----0---|-----0-----0-----|-0-----0-----0---|
|---0-0-----0---0-|---------0-------|---0-0-----0---0-|---------0-------|
|-------0-3-------|-3-0-------3-0---|-------0-3-------|-3-0-------3-0---|
|-2---------------|-----------------|-2---------------|-----------------|
|-----------------|-----------------|-----------------|-----------------|
|-0-----------0---|-----0---------0-|-0-----------0---|-----0---------0-|


  N.C.(G)           N.C.(F)           N.C.(E)
  E E E E E E E E   E E E E E E E E   E E E E E E E E   E E E E E E E E
|-----3-----3-----|-----------------|-----0-----3-----|-0-----0-----0---|
|-----5-----5-----|-----0-----0-----|---0-0-----5---0-|---------0-------|
|---3-----3-----3-|-----------------|-------0-3-------|-3-0-------3-0---|
|-----------------|-3---------------|-----------------|-----------------|
|-----------------|---2-----2-----2-|-----------------|-----------------|
|-3-----3-----3---|-1-----1-----1---|-0-----------0---|-----0---------0-|


  N.C.(G)           F5
                  Gtr II
                               ~
  E E E E E E E E   E E Q  E E Q
|-----3-----3-----|---------------||
|-----5-----5-----|--------0------||
|---3-----3-----3-|----------0-3--||
|-----------------|-3-3-----------||
|-----------------|-3-3-----------||
|-3-----3-----3---|-1-1-----------||
|
| Gtr III
| W                 E E Q  H
|-----------------|---------------||
|-----------------|---------------||
|-----------------|---------------||
|-----------------|-3-3-----------||
|-----------------|-3-3-----------||
|-----------------|-1-1-----------||


 Chorus
  E5        B Bb              B      G         G F#            G B
  Gtrs II, III
  Q  E E Q  E E   +E  E E E E E Q    Q  E E Q  E E   +E  E E E E E Q
|----0----------|-----0------------|----0----------|-----0------------|
|------0--------|-------0----------|------0--------|-------0----------|
|--------0--4-3-|-(3)-----0-3s4-4--|--------0------|---------0--------|
|-2-------------|------------------|-5---------5-4-|-(4)-------5s9-9--|
|-2---------2-1-|-(1)-------1s2-2--|---------------|------------------|
|-0-------------|------------------|-3---------3-2-|-(2)-------3s7-7--|


  E5        B Bb              B      G         G A             G BbA
  Q  E E Q  E E   +E  E E E E E Q    Q  E E Q  E E   +E  E E E E E Q
|----0----------|-----0------------|----0----------|-----0------------||
|------0--------|-------0----------|------0--------|-------0----------||
|--------0--4-3-|-(3)-----0-3s4-4--|--------0------|---------0--------||
|-2-------------|------------------|-5---------5-7-|-(7)-------5-8-7--||
|-2---------2-1-|-(1)-------1s2-2--|---------------|------------------||
|-0-------------|------------------|-3---------3-5-|-(5)-------3-6-5--||


   Bridge
    N.C.(E)
       ~                 PM|   PM|          ~                 PM|
    Q  Q  E E E  E   +E  E E E E E E E   Q  Q  E E E  E   +E  E E E E E E E
||-----------------|-------------------|----------------|---------------------||
||o----5-----------|-------------------|----5-----------|--------------------o||
||--------4-3------|-------------------|-------4-3------|---------------------||
||------------5\---|---------3---------|-----------5\---|---------3-----------||
||o--------------1-|-(1)-----------1h3-|--------------1-|-(1)---3-------3p2--o||
||--0--------------|-----0-1---0-1-----|-0--------------|-----1-----0-1-------||


 Verse
  E  B5 Bb5   F5            E/AbC5F5   E5  B5 Bb5   F5
          PM|             PM                    PM|
  Q  Q  E E E E   +E  E E E E E E  E   Q   Q  E E E E   +E  E    E E E E  Q
|---------------|--------------------|----------------|----------------------|
|---------------|--------------------|----------------|----------------------|
|---------------|---------------5-10-|-9\-------------|-----3b4==3-3-3-3r----|
|----9--8-----3-|-(3)-3-2---6-6-5-10-|-9\--9--8-----3-|-(3)---------------3--|
|----9--8-----3-|-(3)-------7-7-3--8-|-7\--9--8-----3-|-(3)---------------3--|
|-0--7--6-1-0-1-|-(1)-----0-4-4------|-----7--6-1-0-1-|-(1)---------------1--|


  E5 B5 Bb5   F5      DbC   E/AbC5F5
          PM|             PM
  Q  Q  E E E E   +E  E E E E E E  E
|---------------|--------------------|
|---------------|--------------------|
|---------------|---------------5-10-|
|-2--9--8-----3-|-(3)-3-2---6-6-5-10-|
|-2--9--8-----3-|-(3)-4-3---7-7-3--8-|
|-0--7--6-1-0-1-|-(1)-----0-4-4------|


  E5  B5 Bb5   F5
           PM|
  Q   Q  E E E E   +E  E    E E E E S S E
|----------------|------------------------||
|----------------|------------------------||
|-9\-------------|-----3b4==3-3-3-3r3p2p0-||
|-9\--9--8-----3-|-(3)--------------------||
|-7\--9--8-----3-|-(3)--------------------||
|-----7--6-1-0-1-|-(1)--------------------||


 Pre-Chorus
  G5         F/B         E5
  Gtr II
                                     PM    PM      PM    ~
  W          H.      +E  E   +E  E E E E E E E   E E E E H
|----------|---------------|-------------------|-----------------|
|----------|---------------|-------------------|-----------------|
|----------|---------------|-----------------4-|-3---------------|
|-5--------|-3-------(3)-2-|-(2)-5-4---1-2-----|-----5-4-5-------|
|-5--------|-------------2-|-(2)---------------|-----------------|
|-3--------|-1-------(1)-0-|-(0)-----0-----0---|---0-------------|
|
| Gtr III
| W          H.      +E  E   +Q    E E E E E E   E E E E E E E E
|----------|---------------|-------------------|-----------------|
|----------|---------------|-------------------|-----------------|
|----------|---------------|-------------------|-----------------|
|-5--------|-9-------(9)-2-|-(2)-------2-------|---------2-------|
|-5--------|-------------2-|-(2)-------5-----7-|-------7-5---7---|
|-3--------|-7-------(7)-0-|-(0)---0-0-0-0-0-0-|-0-0-0-0-0-0-0-0-|


  B           Bb
  H.      +E  E   +W
|---------------|--------||
|---------------|--------||
|---------------|--------||
|-9-------(9)-8-|-(8)----||
|---------------|--------||
|-7-------(7)-6-|-(6)----||
|
| H.      +E  E   +W
|---------------|--------||
|---------------|--------||
|---------------|--------||
|-9-------(9)-8-|-(8)----||
|---------------|--------||
|-7-------(7)-6-|-(6)----||


 Chorus
  E5       G B Bb              B      G        E G F#            G B
  Gtrs II, III
  Q  E E E E E E   +E  E E E E E Q    Q  E E E E E E   +E  E E E E E Q
|----0-----------|-----0------------|----0-----------|-----0------------|
|------0---------|-------0----------|------0---------|-------0----------|
|--------0---4-3-|-(3)-----0-3s4-4--|--------0-------|---------0--------|
|-2--------5-----|------------------|-5--------2-5-4-|-(4)-------5s9-9--|
|-2----------2-1-|-(1)-------1s2-2--|----------------|------------------|
|-0--------3-----|------------------|-3--------0-3-2-|-(2)-------3s7-7--|


  E5       G B Bb              B      G         G A             G BbA
  Q  E E E E E E   +E  E E E E E Q    Q  E E Q  E E   +E  E E E E E Q
|----0-----------|-----0------------|----0----------|-----0------------||
|------0---------|-------0----------|------0--------|-------0----------||
|--------0---4-3-|-(3)-----0-3s4-4--|--------0------|---------0--------||
|-2--------5-----|------------------|-5---------5-7-|-(7)-------5-8-7--||
|-2----------2-1-|-(1)-------1s2-2--|---------------|------------------||
|-0--------3-----|------------------|-3---------3-5-|-(5)-------3-6-5--||


 Bridge
  N.C.(E)                                                         F5
     ~                 PM|   PM|          ~                 PM|
  Q  Q  E E E  E   +E  E E E E E E E   Q  Q  E E E  E   +E  E E E E E E E
|----------------|-------------------|----------------|-------------------||
|----5-----------|-------------------|----5-----------|-------------------||
|-------4-3------|-------------------|-------4-3------|-------------------||
|-----------5\---|---------3---------|-----------5\---|---------3-3-3-3-3-||
|--------------1-|-(1)-----------1h3-|--------------1-|-(1)---3---3-3-3-3-||
|-0--------------|-----0-1---0-1-----|-0--------------|-----1-----1-1-1-1-||


   Verse
    E5 B5 Bb5   F5      DbC   E/AbC5F5   E5  B5 Bb5   F5
            PM|             PM                    PM|
    Q  Q  E E E E   +E  E E E E E E  E   Q   Q  E E E E
||----------------|--------------------|----------------|
||o---------------|--------------------|----------------|
||----------------|---------------5-10-|-9\-------------|
||--2--9--8-----3-|-(3)-3-2---6-6-5-10-|-9\--9--8-----3-|
||o-2--9--8-----3-|-(3)-4-3---7-7-3--8-|-7\--9--8-----3-|
||--0--7--6-1-0-1-|-(1)-----0-4-4------|-----7--6-1-0-1-|


 1.                       2.
  +E  E    E E E E  Q      +E  E    E E E E S S E
|-----------------------||-------------------------||
|----------------------o||-------------------------||
|-----3b4==3-3-3-3r-----||-----3b4==3-3-3-3r3p2p0--||
|-(3)---------------3---||-(3)---------------------||
|-(3)---------------3--o||-(3)---------------------||
|-(1)---------------1---||-(1)---------------------||


 Bridge
  G5         F/B         E5
  Gtr II
                                     PM    PM      PM    ~
  W          H.      +E  E   +E  E E E E E E E   E E E E H
|----------|---------------|-------------------|-----------------|
|----------|---------------|-------------------|-----------------|
|----------|---------------|-----------------4-|-3---------------|
|-5--------|-3-------(3)-2-|-(2)-5-4---1-2-----|-----5-4-5-------|
|-5--------|-------------2-|-(2)---------------|-----------------|
|-3--------|-1-------(1)-0-|-(0)-----0-----0---|---0-------------|
|
| Gtr III
| W          H.      +E  E   +Q    E E E E E E   E E E E E E E E
|----------|---------------|-------------------|-----------------|
|----------|---------------|-------------------|-----------------|
|----------|---------------|-------------------|-----------------|
|-5--------|-9-------(9)-2-|-(2)-------2-------|---------2-------|
|-5--------|-------------2-|-(2)-------5-----7-|-------7-5---7---|
|-3--------|-7-------(7)-0-|-(0)---0-0-0-0-0-0-|-0-0-0-0-0-0-0-0-|


  B           Bb
  Gtrs II, III
  H.      +E  E   +W           +W
|---------------|------------|----------------||
|---------------|------------|----------------||
|---------------|------------|----------------||
|-9-------(9)-8-|-(8)--------|-(8)------------||
|---------------|------------|----------------||
|-7-------(7)-6-|-(6)--------|-(6)------------||
|
| Gtr IV
| <
|                               /2________|
|                               ~~~~~~~~~~~~~
| W               +W           +H.       +Q
|---------------|------------|----------------||
|---------------|------------|----------------||
|-9-------------|-(9)--------|-(9)-------(9)--||
|---------------|------------|----------------||
|---------------|------------|----------------||
|---------------|------------|----------------||


 Guitar Solo
  E5
   E E   E   E E    E     E        E       E       E      E      E      E E E E
|---------------------------------------|---------------------------------------|
|---------------------------------------|---------------------------------------|
|---------------------------------------|---------------------------------------|
|--2---------2-2-------------------2----|--2---------------------2------2-----2-|
|--2---------2-2-------------------2----|--2---------------------2------2-----2-|
|--0-----0---0-0----------0--------0----|--0--------------0------0------0---0-0-|
|
|                                              T       T      T      T  ~~~~~~~~~
|                         |--3--|
|  Q    +Q     S S  S  S  S  S  S  S  S    S.  T   S.  T  S.  T  S.  T  H
|------------------------11-------------|---------------------------------------|
|-12---(12)\-------12-13----13-12-------|-12--15-\10--12-\8--12-\7--12-/8-------|
|--9----(9)\---x-x----------------14-12-|---------------------------------------|
|--------------x-x----------------------|---------------------------------------|
|---------------------------------------|---------------------------------------|
|---------------------------------------|---------------------------------------|


  E E E E E   E E   E   E   E E  E       E  E E  E
|---------------------|------------------------------|
|---------------------|------------------------------|
|---------------------|------------------------------|
|-2-----2-2---------2-|-2--------2-------2-------2---|
|-2-----2-2---------2-|-2--------2-------2-------2---|
|-0---0-0-0-----0---0-|-0-----0--0-------0----0--0---|
|
|~~~
| H       S S E S S E   S S E E.   +S    Q.      E
|---------------------|------------------------------|
|---------------------|-------------------------12---|
|---------------------|-------4----(4)b5-4-----------|
|---------------------|-5-4-2------------------------|
|-7-------------5-3-2-|------------------------------|
|---------3-2-0-------|------------------------------|


  C5
  Gtr II
   E  E  E  E  E  E  E       E   E E E E E     E E E
|------------------------------|---------------------|
|------------------------------|---------------------|
|--5--------5--5-------------5-|-5-----5-5---------5-|
|--5--------5--5-------------5-|-5-----5-5---------5-|
|--3-----3--3--3-----3-------3-|-3---3-3-3-------3-3-|
|------------------------------|---------------------|
|
| Gtr III
|  E  E  E  E  E  E  E       E   E E E E E     E E E
|------------------------------|---------------------|
|------------------------------|---------------------|
|--5--------5--5-------------5-|-5-----5-5---------5-|
|--5--------5--5-------------5-|-5-----5-5---------5-|
|--3-----3--3--3-----3-------3-|-3---3-3-3-------3-3-|
|------------------------------|---------------------|
|
| Gtr IV
|                                                ~~~~~
|                    |--3--|             |-3-|
|  E  E  E  E  E  E  S  S  S E   E E E E S S S E Q
|------------------------------|---------------------|
|-11-12-11---------------------|-----8---------------|
|----------12-11-12-11h12p11S5-|-4-5---5-4h5p4---4---|
|------------------------------|---------------7-----|
|------------------------------|---------------------|
|------------------------------|---------------------|


  D5                  B5            D5
   E  E E E E E E E   E   E     E E  H
|-------------------|-----------------------------|
|-------------------|-----------------------------|
|--7------7-7-----7-|-4-----------4--7------------|
|--7------7-7-----7-|-4-----------4--7------------|
|--5----5-5-5---5-5-|-2---------2-2--5------------|
|-------------------|-----------------------------|
|
|  E  E E E E E E E   E   E     E E  H
|-------------------|-----------------------------|
|-------------------|-----------------------------|
|--7------7-7-----7-|-4-----------4---------------|
|--7------7-7-----7-|-4-----------4---------------|
|--5----5-5-5---5-5-|-2---------2-2-/9------------|
|-------------------|-----------------------------|
|
|~~~~~                                     ~~~~~~
|                         |-3-|      |-3-|
| +Q    E E E E E E   E a S S S E E  S S S E +Q
|-------------------|-----------------------------|
|-------------------|-----------------------------|
|-(4)---4-5-5s7-7s9-|-9-7-7h9p7-5-7--5h7p5-4-(4)--|
|-------------------|-----------------------------|
|-------------------|-----------------------------|
|-------------------|-----------------------------|


  E5
  Gtrs II, III
   E    E  E    E  E     E      E E    E  E E E E E E  E
|-----------------------------------|--------------------|
|-----------------------------------|--------------------|
|-----------------------------------|--------------------|
|--2------------2--2--------------2-|--2------2-2------2-|
|--2------------2--2--------------2-|--2------2-2------2-|
|--0-------0----0--0------------0-0-|--0----0-0-0---0--0-|
|
| Gtr IV
|                                 ~~~~~~~~             ~~~
|  Q       Q       E.       +S  E E   +H.           E  E
|--7-------7-------7--------(7)-----|--------------------|
|-10b12---10b12---10b12====(10)r8-7-|-(7)-----------8-10-|
|-----------------------------------|--------------------|
|-----------------------------------|--------------------|
|-----------------------------------|--------------------|
|-----------------------------------|--------------------|


    E  E E E  E           E        E E    E  E E E E E E E
|--------------------------------------|--------------------|
|--------------------------------------|--------------------|
|--------------------------------------|--------------------|
|---2------2--2----------------------2-|--2------2-2-----2--|
|---2------2--2----------------------2-|--2------2-2-----2--|
|---0----0-0--0--------------------0-0-|--0----0-0-0---0-0--|
|
|~~~~~~                              ~~~~~~~~
|  +Q    E E +S    +S    +S    +S  E E   +W
|--------------------------------------|--------------------|
|-(10)---8-7-(7)b8r(7)b8r(7)b8r(7)-----|--------------------|
|----------------------------------8-9-|-(9)----------------|
|--------------------------------------|--------------------|
|--------------------------------------|--------------------|
|--------------------------------------|--------------------|


  C5
  Gtr II
  E   E   E   E   E   E    E     E      E   E   E   E    E     E    E   E
|-------------------------------------|------------------------------------|
|-------------------------------------|------------------------------------|
|-5-----------5---5--------------5----|-5-----------5----5--------------5--|
|-5-----------5---5--------------5----|-5-----------5----5--------------5--|
|-3-------3---3---3--------3-----3----|-3-------3---3----3----------3---3--|
|-------------------------------------|------------------------------------|
|
| Gtr III
| E   E   E   E   E   E    E     E      E   E   E   E    E     E    E   E
|-------------------------------------|------------------------------------|
|-------------------------------------|------------------------------------|
|-5-----------5---5--------------5----|-5-----------5----5--------------5--|
|-5-----------5---5--------------5----|-5-----------5----5--------------5--|
|-3-------3---3---3--------3-----3----|-3-------3---3----3----------3---3--|
|-------------------------------------|------------------------------------|
|
| Gtr IV
| S S S S S S S S S S S S  S  S  S  S   S S S S S S S S  S  S  S  S S S E
|-------------------------------------|------------------------------------|
|-------------------------------------|------------------------------------|
|-------------------------------------|------------------------------------|
|-------------------------------------|-7-7-7-7-9-9-9-9-10-10-10-10-9-9-9\-|
|-6-6-6-6-7-7-7-7-9-9-9-9-10-10-10-10-|------------------------------------|
|-------------------------------------|------------------------------------|


  D5                                B5
  E   E   E   E   E   E   E   E     W
|---------------------------------|-----------------------------||
|---------------------------------|-----------------------------||
|-7-----------7---7-----------7---|-4---------------------------||
|-7-----------7---7-----------7---|-4---------------------------||
|-5-------5---5---5-------5---5---|-2---------------------------||
|---------------------------------|-----------------------------||
|
| E   E   E   E   E   E   E   E     H            H
|---------------------------------|-----------------------------||
|---------------------------------|-----------------------------||
|-7-----------7---7-----------7---|-4-----------/8--------------||
|-7-----------7---7-----------7---|-4---------------------------||
|-5-------5---5---5-------5---5---|-2-----------/6--------------||
|---------------------------------|-----------------------------||
|
| |--3--| |--3--| |--3--| |--3--|   |-3-| |-3-|  |-3-| |-3--|
| E E   E E E   E E E   E E E   E   E E E E E E  E E E E E  E
|---------------------------------|-----------5----5-7-5-7--8---||
|---------------------------------|-----5-7-8-7--8-7-8-7-8-10---||
|---------------4---4---5-4-5---7-|-5-7-5-7-9----9--------------||
|-4-5---7-5-7---5-7-5---7-5-7---9-|-7-9-------------------------||
|-6-7---9-7-9-----9---------------|-----------------------------||
|---------------------------------|-----------------------------||


 Bridge
  E                  G
  Gtr II                 Gtr III
          ~                     ~~
   Q      Q  E E  E  E     Q    Q  E E  Q
|----------------------|-------------------|
|----------------------|-------------------|
|---------9------------|-------/9----------|
|------------9-8-------|-----------9-8-----|
|----------------10----|---------------10--|
|----------------------|-------------------|
|
| Gtr V
|  H.            +E  E    +W
|----------------------|-------------------|
|----------------------|-------------------|
|----------------------|-------------------|
|----------------------|-------------------|
|----------------------|-------------------|
|--0-------------(0)-3-|--(3)--------------|
|
|                          >
|  W                      +W
|-10b12================|=(10)--------------|
|-12-------------------|-(12)--------------|
|----------------------|-------------------|
|----------------------|-------------------|
|----------------------|-------------------|
|----------------------|-------------------|


  A                  B
  Gtr II                 Gtr III
          ~~                   ~~
    Q     Q  E E  E  E    Q    Q  S  S E  E E
|----------------------|----------------------|
|----------------------|----------------------|
|--------/9------------|----------------------|
|------------9-8-------|----------------------|
|----------------10----|------10--9h10p9----7-|
|----------------------|-----------------10---|
|
|   H.           +E  E   +W
|----------------------|----------------------|
|----------------------|----------------------|
|----------------------|----------------------|
|----------------------|----------------------|
|----------------------|----------------------|
|---5------------(5)-7-|-(7)------------------|
|
|  +W                     W
|-(10)r----------------|----------------------|
|-(12)-----------------|----------------------|
|----------------------|----------------------|
|----------------------|----------------------|
|----------------------|----------------------|
|----------------------|----------------------|


  E              G                        A              B
  Gtr II             Gtr III              Gtr II             Gtr III
      ~                    ~~                 ~
  Q   Q  E E  E  E    Q    Q  S S E  Q    Q   Q  E E  E  E    Q   E E E E E E
|------------------|--------------------|------------------|------------------||
|------------------|--------------------|------------------|------------------||
|-----9------------|--------------------|-----9------------|------4-5-5s7-7s9-||
|--------9-8-------|------/9--8h9p8-----|--------9-8-------|------------------||
|------------10----|----------------10--|------------10----|------2-3-3s5-5s7-||
|------------------|--------------------|------------------|------------------||
|
| H.         +E  E   +W                   H.         +E  E   +W
|------------------|--------------------|------------------|------------------||
|------------------|--------------------|------------------|------------------||
|------------------|--------------------|------------------|------------------||
|------------------|--------------------|------------------|------------------||
|------------------|--------------------|------------------|------------------||
|-0----------(0)-3-|-(3)----------------|-5----------(5)-7-|-(7)--------------||


 Interlude
  E5             D5             A/Db
  Gtr II Gtrs II, III
  Q   Q  E E  E  E   +E  E  E E S S E  Q
|------------------|----------------------|
|------------------|----------------------|
|-9---9------------|----------------------|
|--------9-8-------|----------8-8h9p8-----|
|------------10--9-|-(9)-9-10---------10--|
|------------------|----------------------|
|
| Gtr III
| >
| W                  +W
|------------------|----------------------|
|------------------|----------------------|
|-9----------------|-(9)------------------|
|------------------|----------------------|
|-7----------------|-(7)------------------|
|------------------|----------------------|
|
| Gtr V
| H.         +E  E   +H         H
|------------------|----------------------|
|------------------|----------------------|
|----------------7-|-(7)--------6---------|
|-2----------(2)-7-|-(7)--------7---------|
|-2----------(2)-5-|-(5)--------4---------|
|-0----------(0)---|----------------------|


  C5               B5
   Q    Q  E E  E  S S    E  E E E Q      Q
|----------------------|-----------------------|
|----------------------|-----------------------|
|----------------------|-----------------------|
|-10---10--7-----------|-----------5b5.5r======|
|------------9---------|---------5--------7----|
|---------------8--7-7-|--7--5-7---------------|
|
|  W                      W
|----------------------|-----------------------|
|----------------------|-----------------------|
|----------------------|-----------------------|
|----------------------|-----------------------|
|----------------------|-----------------------|
|----------------------|-----------------------|
|
|  H.          +E  E     +Q.     E H
|----------------------|-----------------------|
|----------------------|-----------------------|
|--5-----------(5)-4---|-(4)-------------------|
|--5-----------(5)-4---|-(4)-------------------|
|--3-----------(3)-2---|-(2)-----2-------------|
|----------------------|-----------3-----------|


    E5             D5             A/Db
    Q   Q  E E  E  E   +E  E  E E S S E  Q
||-------------------|----------------------|
||o------------------|----------------------|
||--9---9------------|----------------------|
||---------9-8-------|----------8-8h9p8-----|
||o------------10--9-|-(9)-9-10---------10--|
||-------------------|----------------------|
|
|   Gtr V
|   H.         +E  E   +H         H
||-------------------|----------------------|
||o------------------|----------------------|
||-----------------7-|-(7)--------6---------|
||--2----------(2)-7-|-(7)--------7---------|
||o-2----------(2)-5-|-(5)--------4---------|
||--0----------(0)---|----------------------|


  C5               B5
   Q    Q  E E  E  S S    E  E E E Q      Q    3x
|----------------------|-----------------------||
|----------------------|----------------------o||
|----------------------|-----------------------||
|-10---10--7-----------|-----------5b5.5r======||
|------------9---------|---------5--------7---o||
|---------------8--7-7-|--7--5-7---------------||
|
|                                  ~~~~~~
|  H.          +E  E     +Q.     E H           3x
|----------------------|-----------------------||
|----------------------|----------------------o||
|--5-----------(5)-4---|-(4)-------------------||
|--5-----------(5)-4---|-(4)-------------------||
|--3-----------(3)-2---|-(2)-----2------------o||
|----------------------|-----------3-----------||


  E5             D5                A/Db
  Q  Q    E E  E  E    +E   E  E E S  S E  Q
|-------------------|--------------------------|
|-------------------|--------------------------|
|-9--9--------------|--------------------------|
|---------9-8-------|------------8-8h=9p8------|
|-------------10--9-|--(9)--9-10----------10---|
|-------------------|--------------------------|
|
| Gtr VI
| Q  Q    E E  E  E    +E   E  E E S  S E  Q
|-------------------|--------------------------|
|-------------------|--------------------------|
|-------------------|--------------------------|
|-9--9--------------|--------------------------|
|--------10-9-------|------------9-9h10p9------|
|-------------12-10-|-(10)-10-12----------12---|
|
| Gtr V
|      PM-----|                  PM          PM
| Q  E E  E E  E  E    +Q.       E Q.        E
|-------------------|--------------------------|
|-------------------|--------------------------|
|-----------------7-|--(7)---------6-----------|
|-2--2------------7-|--(7)---------7-----------|
|-2--2------------5-|--(5)-------5-4---------4-|
|-0--0-0--0-0--0----|--------------------------|


  C5            B5
   Q   Q  E E E E   +E  E E E Q      Q
|-----------------|---------------------|
|-----------------|---------------------|
|-----------------|---------------------|
|-10--10--7-------|-----------5b5.5r====|
|-----------9-----|---------5--------7--|
|-------------8-7-|-(7)-5-7-------------|
|
|  Q   Q  E E E E   +E  E E E Q      Q
|-----------------|---------------------|
|-----------------|---------------------|
|--9---9--5-------|-----------4b4.5r====|
|-----------7-----|---------4--------5--|
|-------------7-6-|-(6)-4-6-------------|
|-----------------|---------------------|
|
|         PM|                 ~~~~~~
|  Q   Q  E E E E   +E  E E E H
|-----------------|---------------------|
|-----------------|---------------------|
|--5---5------5-4-|-(4)-4---4-----------|
|--5---5------5-4-|-(4)-4---4-----------|
|--3---3--3-3-3-2-|-(2)-2-2-2-----------|
|-----------------|-----------3---------|


  E5             D5                A/Db
  Q  Q    E E  E  E    +E   E  E E S  S E  Q
|-------------------|--------------------------|
|-------------------|--------------------------|
|-9--9--------------|--------------------------|
|---------9-8-------|------------8-8h=9p8------|
|-------------10--9-|--(9)--9-10----------10---|
|-------------------|--------------------------|
|
| Q  Q    E E  E  E    +E   E  E E S  S E  Q
|-------------------|--------------------------|
|-------------------|--------------------------|
|-------------------|--------------------------|
|-9--9--------------|--------------------------|
|--------10-9-------|------------9-9h10p9------|
|-------------12-10-|-(10)-10-12----------12---|
|
|      PM-----|                  PM          PM
| Q  E E  E E  E  E    +Q.       E Q.        E
|-------------------|--------------------------|
|-------------------|--------------------------|
|-----------------7-|--(7)---------6-----------|
|-2--2------------7-|--(7)---------7-----------|
|-2--2------------5-|--(5)-------5-4---------4-|
|-0--0-0--0-0--0----|--------------------------|


  C5               B5
                                                 Gtr I
                        >
   Q    Q  E E  E  E   +W           +H.      +E  E
|--------------------|------------|------------------||
|--------------------|------------|------------------||
|--------------------|------------|------------------||
|-10---10--7---------|------------|------------------||
|------------9-------|------------|------------------||
|---------------8--7-|-(7)--------|-(7)------(7)-0---||
|
|                       >
|  Q    Q  E E  E  E   +W           +W
|--------------------|------------|------------------||
|--------------------|------------|------------------||
|--9----9--5---------|------------|------------------||
|------------7-------|------------|------------------||
|---------------7--6-|-(6)--------|-(6)--------------||
|--------------------|------------|------------------||
|
|                       >
|  H.          +E  E   +W           +W
|--------------------|------------|------------------||
|--------------------|------------|------------------||
|--5-----------(5)-4-|-(4)--------|-(4)--------------||
|--5-----------(5)-4-|-(4)--------|-(4)--------------||
|--3-----------(3)-2-|-(2)--------|-(2)--------------||
|--------------------|------------|------------------||


 Outro
  N.C.(E)
  Q  E E E E E E   E E E E E E E E   Q  E E E E E E   E E E E E E E E
|----------------|-------0---------|----------------|-------0---------|
|----0---------0-|---------0-------|----0---------0-|---------0-------|
|------0-3-0-----|-3-0-------3-0---|------0-3-0-----|-3-0-------3-0---|
|----------------|-----------------|----------------|-----------------|
|----------------|-----------------|----------------|-----------------|
|-0----------0---|-----0---------0-|-0----------0---|-----0---------0-|


  Q  E E E E E E   E E E E E E E E   Q  E E E E E  E   +W
|----------------|-------0---------|--------------^0-|-(0)----*|
|----0---------0-|---------0-------|----0---------^0-|-(0)----*|
|------0-3-0-----|-3-0-------3-0---|------0-3-0------|--------*|
|----------------|-----------------|-----------------|--------*|
|----------------|-----------------|-----------------|--------*|
|-0----------0---|-----0---------0-|-0----------0----|--------*|



Duration Legend
---------------
W - whole; H - half; Q - quarter; E - 8th; S - 16th; T - 32nd; X - 64th; a - acciaccatura
+ - note tied to previous; . - note dotted; .. - note double dotted
Uncapitalized letters represent notes that are staccato (1/2 duration)
Irregular groupings are notated above the duration line
Duration letters will always appear directly above the note/fret number it represents the
duration for.  Duration letters with no fret number below them represent rests.  Multi-
bar rests are notated in the form Wxn, where n is the number of bars to rest for.  Low
melody durations appear below the staff

Tablature Legend
----------------
 h   - hammer-on
 p   - pull-off
 b   - bend
 pb  - pre-bend
 r   - bend release (if no number after the r, then release immediately)
 /\  - slide into or out of (from/to "nowhere")
 s   - legato slide
 S   - shift slide
 - natural harmonic
[n]  - artificial harmonic
n(n) - tapped harmonic
 ~   - vibrato
 tr  - trill
 T   - tap
 TP  - trem. picking
 PM  - palm muting
\n/  - tremolo bar dip; n = amount to dip
 \n  - tremolo bar down
 n/  - tremolo bar up
/n\  - tremolo bar inverted dip
 =   - hold bend; also acts as connecting device for hammers/pulls
 <> - volume swell (louder/softer)
 x   - on rhythm slash represents muted slash
 o   - on rhythm slash represents single note slash

Misc Legend
-----------
 |  - bar
||  - double bar
||o - repeat start
o|| - repeat end
*|  - double bar (ending)
 :  - bar (freetime)
 $  - Segno
 &  - Coda
Tempo markers -  = BPM(8/16=s8/s16), where s8 = swing 8ths, s16 = swing 16ths
            
Submit corrections

comments powered by Disqus
↑ Back to top | Haunted Tabs for Abysmal. Lyrics for acoustic guitar and electric guitar. 1 Tablatures and chords are parodies/interpretations of the original songs. You may use it for private study, scholarship, research or language learning purposes only