» » »

Haunted, 99 Tabs (ver.4)

Artists:  A B C D E F G H I J K L M N O P Q R S T U V W X Y Z # 

99 Tabs (ver.4)

Haunted Tabs
Rating:
0/5 (0 votes)
Hard to play? Try these video lessons and learn fast.
                
99
As recorded by The Haunted
(From the 2004 Album REVOLVER)

        

Words by Peter Dolving Music by The Haunted

Gtr I (D G C F A D) - 'Distortion'
Gtr II (D G C F A D) - 'Distortion'
Gtr III (D G C F A D) - 'Overdriven'
Gtr IV (D G C F A D) - 'Overdriven'

 Intro
  Q=180
  N.C.  E5
 4/8       4/4
  Gtr I
                  PM----------------------------------------|
  E E E E   +E  E S S E S S E S S E   S S E S S E S S E S S E
|---------|-------------------------|-------------------------|
|---------|-------------------------|-------------------------|
|---------|-------------------------|-------------------------|
|-------2-|-(2)---------------------|-------------------------|
|---1-0-2-|-(2)---------------------|-------------------------|
|-3-----0-|-(0)---0-0-0-0-0-0-0-0-0-|-0-0-0-0-0-0-0-0-0-0-0-0-|
|
| Gtr II
|                                                       PM--|
| E E E E   +E  E Q     H             H           Q     S S E
|---------|-------------------------|-------------------------|
|---------|-------------------------|-------------------------|
|---------|-------------------------|-------------------------|
|-------2-|-(2)---------------------|-------------------------|
|---1-0-2-|-(2)---------------------|-------------------------|
|-3-----0-|-(0)---------------------|-------------------0-0-0-|


    E5
                                                       1/8
    Gtrs I, II
    PM--------------------------------------------------|
    S S E S S E S S E S S E   S S E S S E S S E S S E   E
||--------------------------|-------------------------|----|
||o-------------------------|-------------------------|----|
||--------------------------|-------------------------|----|
||--------------------------|-------------------------|----|
||o-------------------------|-------------------------|----|
||--0-0-0-0-0-0-0-0-0-0-0-0-|-0-0-0-0-0-0-0-0-0-0-0-0-|-0--|


 4/4                       4/4
  PM----------------------------------------|
  S S E S S E S S E S S E   S S E S S E E E E E
|-------------------------|---------------------|
|-------------------------|---------------------|
|-------------------------|---------------------|
|-------------------------|-------------------2-|
|-------------------------|---------------1-0-2-|
|-0-0-0-0-0-0-0-0-0-0-0-0-|-0-0-0-0-0-0-3-----0-|


                                                    1/8
       PM--------------------------------------------|
  +Q   S S E S S E S S E   S S E S S E S S E S S E   E
|------------------------|-------------------------|---|
|------------------------|-------------------------|---|
|------------------------|-------------------------|---|
|-(2)--------------------|-------------------------|---|
|-(2)--------------------|-------------------------|---|
|-(0)--0-0-0-0-0-0-0-0-0-|-0-0-0-0-0-0-0-0-0-0-0-0-|-0-|


 4/4
  PM------------------------------------------|
  S S E S S E S S E S S E   S S E S S E E E E E
|-------------------------|---------------------||
|-------------------------|---------------------||
|-------------------------|---------------------||
|-------------------------|---------------------||
|-------------------------|---------------1-0---||
|-0-0-0-0-0-0-0-0-0-0-0-0-|-0-0-0-0-0-0-3-----0-||


  1.
  F#5                  G5               F#5                  G5
     PM      PM                     PM     PM      PM                     PM
  Q  E E E E E E   +E   E E E E E E E   Q  E E E E E E   +E   E E E E E E E
|----------------|--------------------|----------------|---------------------|
|----------------|--------------------|----------------|---------------------|
|------4-3-------|--------------------|------4-3-------|---------------------|
|-4------------4-|-(4)-/5-5-5-5-5-5---|-4------------4-|-(4)-/5-5-5-5-5-5----|
|-4----2-1-----4-|-(4)-/5-5-5-5-5-5---|-4----2-1-----4-|-(4)-/5-5-5-5-5-5----|
|-2--0-----3-0-2-|-(2)-/3-3-3-3-3-3-0-|-2--0-----3-0-2-|-(2)-/3-3-3-3-3-3-0--|


  F#5                  G5               F#5                  G5
     PM      PM                     PM     PM      PM                     PM
  Q  E E E E E E   +E   E E E E E E E   Q  E E E E E E   +E   E E E E E E E
|----------------|--------------------|----------------|----------------------||
|----------------|--------------------|----------------|---------------------o||
|------4-3-------|--------------------|------4-3-------|----------------------||
|-4------------4-|-(4)-/5-5-5-5-5-5---|-4------------4-|-(4)-/5-5-5-5-5-5-----||
|-4----2-1-----4-|-(4)-/5-5-5-5-5-5---|-4----2-1-----4-|-(4)-/5-5-5-5-5-5----o||
|-2--0-----3-0-2-|-(2)-/3-3-3-3-3-3-0-|-2--0-----3-0-2-|-(2)-/3-3-3-3-3-3-0---||


  2.
  F#5                   G5               F#5                   G5
      PM      PM                     PM      PM      PM                     PM
  Q   E E E E E E   +E   E E E E E E E   Q   E E E E E E   +E   E E E E E E E
|-----------------|--------------------|-----------------|---------------------|
|-----------------|--------------------|-----------------|---------------------|
|-------4-3-------|--------------------|-------4-3-------|---------------------|
|-4-------------4-|-(4)-/5-5-5-5-5-5---|-4-------------4-|-(4)-/5-5-5-5-5-5----|
|-4-----2-1-----4-|-(4)-/5-5-5-5-5-5---|-4-----2-1-----4-|-(4)-/5-5-5-5-5-5----|
|-2---0-----3-0-2-|-(2)-/3-3-3-3-3-3-0-|-2---0-----3-0-2-|-(2)-/3-3-3-3-3-3-0--|
|
| Gtr III
| E E E E E E E E   +E   E E E E E E E   E E E E E E E E   +E   E E E E E E E
|-----------------|--------------------|-----------------|---------------------|
|-7-7-7-7-7-7-7-7-|-(7)--8-8-8-8-8-8-8-|-7-7-7-7-7-7-7-7-|-(7)--8-8-8-8-8-8-8--|
|-----------------|--------------------|-----------------|---------------------|
|-----------------|--------------------|-----------------|---------------------|
|-----------------|--------------------|-----------------|---------------------|
|-----------------|--------------------|-----------------|---------------------|
|
| Gtr IV
| E E E E E E E E   +E   E E E E E E E   E E E E E E E E   +E   E E E E E E E
|-----------------|--------------------|-----------------|---------------------|
|-----------------|--------------------|-----------------|---------------------|
|-6-6-6-6-6-6-6-6-|-(6)--7-7-7-7-7-7-7-|-6-6-6-6-6-6-6-6-|-(6)--7-7-7-7-7-7-7--|
|-----------------|--------------------|-----------------|---------------------|
|-----------------|--------------------|-----------------|---------------------|
|-----------------|--------------------|-----------------|---------------------|


  F#5                   G5               F#5           G5
      PM      PM                     PM      PM      PM
  Q   E E E E E E   +E   E E E E E E E   Q   E E E E E E    W
|-----------------|--------------------|-----------------||------||
|-----------------|--------------------|-----------------||------||
|-------4-3-------|--------------------|-------4-3-------||------||
|-4-------------4-|-(4)-/5-5-5-5-5-5---|-4-------------5-||------||
|-4-----2-1-----4-|-(4)-/5-5-5-5-5-5---|-4-----2-1-----5-||------||
|-2---0-----3-0-2-|-(2)-/3-3-3-3-3-3-0-|-2---0-----3-0-3-||------||
|
| E E E E E E E E   +E   E E E E E E E   E E E E E E E E    W
|-----------------|--------------------|-----------------||------||
|-7-7-7-7-7-7-7-7-|-(7)--8-8-8-8-8-8-8-|-7-7-7-7-7-7-7-8-||------||
|-----------------|--------------------|-----------------||------||
|-----------------|--------------------|-----------------||------||
|-----------------|--------------------|-----------------||------||
|-----------------|--------------------|-----------------||------||
|
| E E E E E E E E   +E   E E E E E E E   E E E E E E E E    W
|-----------------|--------------------|-----------------||------||
|-----------------|--------------------|-----------------||------||
|-6-6-6-6-6-6-6-6-|-(6)--7-7-7-7-7-7-7-|-6-6-6-6-6-6-6-7-||------||
|-----------------|--------------------|-----------------||------||
|-----------------|--------------------|-----------------||------||
|-----------------|--------------------|-----------------||------||


   Verse
    $
    F5E5            F5E5            F5G5
        PM--------|       PM------|     PM|
    E E S S E S S E E E   E E S S E E E E E
||----------------------|-------------------|
||o---------------------|-------------------|
||----------------------|-------------------|
||--3S2-------------3S2-|-----------3S5-----|
||o-3S2-------------3S2-|-----------3S5-----|
||--1S0-0-0-0-0-0-0-1S0-|-0-0-0-0-0-1S3-0-0-|


  F5E5            F5E5  N.C.
      PM--------|       PM--------|     PM
  E E S S E S S E E E   E E S S E E E E E    4x
|---------------------|----------------------||
|---------------------|---------------------o||
|---------------------|----------------------||
|-3S2-------------3S2-|----------------------||
|-3S2-------------3S2-|-------------1p0-----o||
|-1S0-0-0-0-0-0-0-1S0-|-0-0-0-0-0-3-----0----||


 Pre-Chorus
  N.C.                                                               E5
      PM        PM          PM         PM      PM        PM
  E E E E +E  E E E   +E  E E  E E E E E   E E E E +E  E E E   +E  E E E Q  Q
|-------------------|--------------------|-------------------|-----------------|
|-------------------|--------------------|-------------------|-----------------|
|-------------------|--------------------|-------------------|-----------------|
|-8-8---7-(7)-7---5-|-(5)-5---/8-8-8-8---|-8-8---7-(7)-7---5-|-(5)-5-2-2-2--2--|
|-------------------|--------------------|-------------------|-------2-2-2--2--|
|-6-6-0-5-(5)-5-0-3-|-(3)-3-0-/6-6-6-6-0-|-6-6-0-5-(5)-5-0-3-|-(3)-3-0-0-0--0--|


  N.C.
      PM        PM          PM         PM
  E E E E +E  E E E   +E  E E  E E E E E
|-------------------|--------------------|
|-------------------|--------------------|
|-------------------|--------------------|
|-8-8---7-(7)-7---5-|-(5)-5---/8-8-8-8---|
|-------------------|--------------------|
|-6-6-0-5-(5)-5-0-3-|-(3)-3-0-/6-6-6-6-0-|


  F5       D5E5   F5         D5E5         E5
                PM                PM----|
   S  S  E E Q  E  S  S  E   E Q  E E E E E
|--------------------------|------------------||
|--------------------------|------------------||
|-10-10-10-7-9----10-10-10-|-7-9--------------||
|-10-10-10-7-9----10-10-10-|-7-9----------2---||
|--8--8--8-5-7-----8--8--8-|-5-7------1-0-2---||
|---------------0----------|------0-3-----0---||


 Chorus
  N.C.
                                ~                                ~
  +Q   Q  E E E E   E E E E E E Q    Q  Q  E E E E   E E E E E E Q
|-----------------|----------------|---------------|----------------|
|-----------------|----------------|---------------|----------------|
|-----------------|----------------|---------------|----------------|
|-(2)-------------|----------------|---------------|-------------3--|
|-(2)-------1-----|---2-------1----|---------1-----|---2-------1----|
|-(0)--0--3---3-0-|-1---1-0-3---3--|-0--0--3---3-0-|-1---1-0-3------|


                                                             D.S.
                              ~
  Q  Q  E E E E   E E E E E E Q    Q  Q  E E E E   E E E E E E E E
|---------------|----------------|---------------|-----------------||
|---------------|----------------|---------------|-----------------||
|---------------|----------------|---------------|-----------------||
|---------------|----------------|---------------|-------------3p0-||
|---------1-----|---2-------1----|---------1-----|---2-------1-----||
|-0--0--3---3-0-|-1---1-0-3---3--|-0--0--3---3-0-|-1---1-0-3-------||


 Bridge
  G#                      G
  Gtr I
  W                       W
|-----------------------|-----------------------|
|-----------------------|-----------------------|
|-----------------------|-----------------------|
|-6---------------------|-5---------------------|
|-----------------------|-----------------------|
|-4---------------------|-3---------------------|
|
| Gtr II
| PM---------------------------------------------
| E S S E E S S E E S S   E E S S E S S E S S E
|-----------------------|-----------------------|
|-----------------------|-----------------------|
|-----------------------|-----------------------|
|-----------------------|-----------------------|
|-----------------------|-----------------------|
|-0-0-0-0-0-0-0-0-0-0-0-|-0-0-0-0-0-0-0-0-0-0-0-|


  B                       N.C.
  W                         H          H
|-----------------------|--------------------------|
|-----------------------|--------------------------|
|-----------------------|--------------------------|
|-9---------------------|--------------------------|
|-----------------------|--------------------------|
|-7---------------------|-/13---------12-----------|
|
|------------------------------------------------|
| E S S E E S S E E S S     E E S S E  S S E S S E
|-----------------------|--------------------------|
|-----------------------|--------------------------|
|-----------------------|--------------------------|
|-----------------------|--------------------------|
|-----------------------|--------------------------|
|-0-0-0-0-0-0-0-0-0-0-0-|---0-0-0-0-0--0-0-0-0-0-0-|


  G#                      G
  W                       W
|-----------------------|-----------------------|
|-----------------------|-----------------------|
|-----------------------|-----------------------|
|-6---------------------|-5---------------------|
|-----------------------|-----------------------|
|-4---------------------|-3---------------------|
|
| PM---------------------------------------------
| E S S E E S S E E S S   E E S S E S S E S S E
|-----------------------|-----------------------|
|-----------------------|-----------------------|
|-----------------------|-----------------------|
|-----------------------|-----------------------|
|-----------------------|-----------------------|
|-0-0-0-0-0-0-0-0-0-0-0-|-0-0-0-0-0-0-0-0-0-0-0-|


  B                       N.C.                  G#
  W                         H          Q.       E
|-----------------------|--------------------------||
|-----------------------|--------------------------||
|-----------------------|--------------------------||
|-9---------------------|--------------------------||
|-----------------------|--------------------------||
|-7---------------------|-/13---------12--------0--||
|
|---------------------------------------------|
| E S S E E S S E E S S     E E S S E  S  S E E E
|-----------------------|--------------------------||
|-----------------------|--------------------------||
|-----------------------|--------------------------||
|-----------------------|-----------------------6--||
|-----------------------|--------------------------||
|-0-0-0-0-0-0-0-0-0-0-0-|---0-0-0-0-0--0--0-0-0-4--||


 Interlude
                     F5              E5
  +Q   E E E E E E   E E E E  E  E E E
|------------------|-------------------|
|------------------|-------------------|
|------------------|-------------------|
|------6---6-------|-6-9-6----6--------|
|--------8---8-7h8-|-------8-----8-7---|
|-(0)--------------|-----------------0-|
|
|                                PM|
| +W                 H       +E  E E E
|------------------|-------------------|
|------------------|-------------------|
|------------------|-------------------|
|-(6)--------------|-3-------(3)-----2-|
|------------------|-3-------(3)-----2-|
|-(4)--------------|-1-------(1)-1-1-0-|


                                       G#
               PM----------------------|
  +Q   E E E E E E    E  E E E E E  E  E
|------------------|---------------------|
|------------------|---------------------|
|------------------|---------------------|
|----------------5-|---------8-7-5-------|
|------8p7-8p7-----|--8--7----------8----|
|-(0)----------0---|-------0-----------0-|
|
| +W                 +H.           +E  E
|------------------|---------------------|
|------------------|---------------------|
|------------------|---------------------|
|-(2)--------------|-(2)-----------(2)-6-|
|-(2)--------------|-(2)-----------(2)---|
|-(0)--------------|-(0)-----------(0)-4-|


                     F5              E5
  +Q   E E E E E E   E E E E  E  E E E
|------------------|-------------------|
|------------------|-------------------|
|------------------|-------------------|
|------6---6-------|-6-9-6----6--------|
|--------8---8-7h8-|-------8-----8-7---|
|-(0)--------------|-----------------0-|
|
|                                PM|
| +W                 H       +E  E E E
|------------------|-------------------|
|------------------|-------------------|
|------------------|-------------------|
|-(6)--------------|-3-------(3)-----2-|
|------------------|-3-------(3)-----2-|
|-(4)--------------|-1-------(1)-1-1-0-|


               PM----------------------|
  +Q   E E E E E E    E  E E E E E  E  E
|------------------|---------------------||
|------------------|---------------------||
|------------------|---------------------||
|----------------5-|---------8-7-5-------||
|------8p7-8p7-----|--8--7----------8----||
|-(0)----------0---|-------0-----------0-||
|
| +W                 +H.           +E  E
|------------------|---------------------||
|------------------|---------------------||
|------------------|---------------------||
|-(2)--------------|-(2)-----------(2)---||
|-(2)--------------|-(2)-----------(2)---||
|-(0)--------------|-(0)-----------(0)-0-||


  N.C.
                                                    PM------------------|
  +Q   E E E E E E   E E E E E E E E   +Q   E E E E E E   E E E E E E E E
|------------------|-----------------|------------------|-----------------|
|------------------|-----------------|------------------|-----------------|
|------------------|-----------------|------------------|-----------------|
|------6---6-------|-6-9-6---6-------|----------------5-|-------8-7-5-----|
|--------8---8-7h8-|-------8---8-7---|------8p7-8p7-----|-8-7---------8---|
|-(0)--------------|---------------0-|-(0)----------0---|-----0---------0-|
|
|                                                   PM------------------|
| +Q   E E E E E E   E E E E E E E E   +Q   E E E E E E   E E E E E E E E
|------------------|-----------------|------------------|-----------------|
|------------------|-----------------|------------------|-----------------|
|------4---4-------|-4-7-4---4-------|------------------|-----------------|
|--------6---6-5h6-|-------6---6-5---|------------------|-------5-3-2-----|
|------------------|-----------------|------5p3-5p3---5-|-3-2---------5---|
|-(0)--------------|---------------0-|-(0)----------0---|-----0---------0-|


  Gtr III
   W                 W
|------------------|-----------------|
|------------------|-----------------|
|------------------|-----------------|
|------------------|-----------------|
|------------------|-----------------|
|------------------|-----------------|
|
| Gtr I
| +Q   E E E E E E   E E E E E E E E
|------------------|-----------------|
|------------------|-----------------|
|------------------|-----------------|
|------6---6-------|-6-9-6---6-------|
|--------8---8-7h8-|-------8---8-7---|
|-(0)--------------|---------------0-|
|
| Gtr II
| +Q   E E E E E E   E E E E E E E E
|------------------|-----------------|
|------------------|-----------------|
|------4---4-------|-4-7-4---4-------|
|--------6---6-5h6-|-------6---6-5---|
|------------------|-----------------|
|-(0)--------------|---------------0-|


                                   E5
   W                 H       Q   E  E
|------------------|----------------------||
|------------------|---------------10b12==||
|------------------|----------------------||
|------------------|----------------------||
|------------------|----------------------||
|------------------|----------------------||
|
|              PM----------------|
| +Q   E E E E E E   E E E E E E E  E
|------------------|----------------------||
|------------------|----------------------||
|------------------|----------------------||
|----------------5-|-------8-7-5----2-----||
|------8p7-8p7-----|-8-7---------8--2-----||
|-(0)----------0---|-----0----------0-----||
|
|              PM----------------|
| +Q   E E E E E E   E E E E E E E  E
|------------------|----------------------||
|------------------|----------------------||
|------------------|----------------------||
|------------------|-------5-3-2----2-----||
|------5p3-5p3---5-|-3-2---------5--2-----||
|-(0)----------0---|-----0----------0-----||


 Guitar Solo
                    F5    E5                  F5G5
  Gtr III
   +H.               +E   E       +H.             +E    E
|-------------------------------|-----------------------------|
|-(10)--------------(10)r-9b11==|=(9)-------------(9)r--------|
|-------------------------------|----------------------10b12==|
|-------------------------------|-----------------------------|
|-------------------------------|-----------------------------|
|-------------------------------|-----------------------------|
|
|       PM------|                  PM-------|      PM--|
|  +Q   S S E S S E   E   E        E  E S S E E E  E    E
|-------------------------------|-----------------------------|
|-------------------------------|-----------------------------|
|-------------------------------|-----------------------------|
|--(2)----------------3S==2-----|-------------3S5-------------|
|--(2)----------------3S==2-----|-------------3S5-------------|
|--(0)--0-0-0-0-0-0---1S==0-----|--0--0-0-0-0-1S3--0----0-----|


  F5  E5            F5    E5
                                           ~~~
   +H.               +E   E   E E E   E E  Q.
|---------------------------|--------------------|
|---------------------------|--------------------|
|-(10)--------------(10)r-9-|---8-----9---11-----|
|---------------------------|--------------------|
|---------------------------|--------------------|
|---------------------------|--------------------|
|
|       PM------|             PM--------|      PM
|   E E S S E S S E   E   E   E E S S E E  E E E
|---------------------------|--------------------|
|---------------------------|--------------------|
|---------------------------|--------------------|
|---3S2---------------3S==2-|--------------------|
|---3S2---------------3S==2-|--------------1p0---|
|---1S0-0-0-0-0-0-0---1S==0-|-0-0-0-0-0-3------0-|


  F5  E5                     F5E5                   F5G5
    ~~~~
   +Q.       Q         Q.           +Q.        E    E E E E
|------------7---------7---------|--(7)---------------------|
|-----------10b12-----10b12======|=(10)r-------9b10---8---8-|
|-(11)---------------------------|--------------------------|
|--------------------------------|--------------------------|
|--------------------------------|--------------------------|
|--------------------------------|--------------------------|
|
|       PM----------|                PM--------|        PM|
|   E E S S  E    S S  E     E E     E   E S S E    E E E E
|--------------------------------|--------------------------|
|--------------------------------|--------------------------|
|--------------------------------|--------------------------|
|---3S2----------------------3S2-|------------------3S5-----|
|---3S2----------------------3S2-|------------------3S5-----|
|---1S0-0-0--0----0-0--0-----1S0-|---0---0-0-0-0----1S3-0-0-|


  F5E5                  F5E5
                                         ~~~
  Q   S S  S S S S  S S E E   H         +H
|-----7-8-10-7--------------|----------------------||
|-7------------7-8-10-7-----|----------------------||
|-----------------------9-8-|-9---------(9)--------||
|---------------------------|----------------------||
|---------------------------|----------------------||
|---------------------------|----------------------||
|
|     PM---------|            PM--------|       PM
| E E S S  E   S S  E   E E   E E S S E  E  E E E
|---------------------------|----------------------||
|---------------------------|----------------------||
|---------------------------|----------------------||
|-3S2-------------------3S2-|----------------------||
|-3S2-------------------3S2-|---------------1p0----||
|-1S0-0-0--0---0-0--0---1S0-|-0-0-0-0-0--3------0--||


  G#
   T     T     T     T     T     T     T     T     T     T     T     T
   |------6-------|  |------6-------|  |------6-------|  |------6-------|
   S  S  S  S  S  S  S  S  S  S  S  S  S  S  S  S  S  S  S  S  S  S  S  S
|-19p16-19p16-19p16-19p16-19p16-19p16-19p16-19p16-19p16-19p16-19p16-19p16-|
|-------------------------------------------------------------------------|
|-------------------------------------------------------------------------|
|-------------------------------------------------------------------------|
|-------------------------------------------------------------------------|
|-------------------------------------------------------------------------|
|
|  W
|-------------------------------------------------------------------------|
|-------------------------------------------------------------------------|
|-------------------------------------------------------------------------|
|--6----------------------------------------------------------------------|
|-------------------------------------------------------------------------|
|--4----------------------------------------------------------------------|


  G
   T     T     T     T     T     T     T     T     T     T     T     T
   |------6-------|  |------6-------|  |------6-------|  |------6-------|
   S  S  S  S  S  S  S  S  S  S  S  S  S  S  S  S  S  S  S  S  S  S  S  S
|-19p11-19p11-19p11-19p12-19p12-19p12-19p14-19p14-19p14-19p12-19p12-19p12--|
|--------------------------------------------------------------------------|
|--------------------------------------------------------------------------|
|--------------------------------------------------------------------------|
|--------------------------------------------------------------------------|
|--------------------------------------------------------------------------|
|
|  W
|--------------------------------------------------------------------------|
|--------------------------------------------------------------------------|
|--------------------------------------------------------------------------|
|--5-----------------------------------------------------------------------|
|--------------------------------------------------------------------------|
|--3-----------------------------------------------------------------------|


  B
   T     T     T     T    T    T    T    T    T    T    T    T
   |------6-------|  |-----3-----|  |-----6-----|  |-----6-----|
   S  S  S  S  S  S  S S  S S  S S  S S  S S  S S  S S  S S  S S
|-19p11-19p11-19p11-14p8-14p8-14p8-14p7-14p7-14p7-14p5-14p5-14p5-|
|----------------------------------------------------------------|
|----------------------------------------------------------------|
|----------------------------------------------------------------|
|----------------------------------------------------------------|
|----------------------------------------------------------------|
|
|  W
|----------------------------------------------------------------|
|----------------------------------------------------------------|
|----------------------------------------------------------------|
|-/9-------------------------------------------------------------|
|----------------------------------------------------------------|
|-/7-------------------------------------------------------------|


  N.C.
   T   ~~~
   a   W
|-14p==7----------|
|-----------------|
|-----------------|
|-----------------|
|-----------------|
|-----------------|
|
|      H     H
|-----------------|
|-----------------|
|-----------------|
|-----------------|
|-----------------|
|----/13----12----|


  G#                  G
   ~~~
  +Q.     Q   Q   E   +E   Q   Q    Q.
|-(7)---------------|--------------------|
|-------/10--\9--\6-|-(6)-\5--/6--/10----|
|-------/10--\9--\7-|-(7)-\5--/7--/10----|
|-------------------|--------------------|
|-------------------|--------------------|
|-------------------|--------------------|
|
|  W                   W
|-------------------|--------------------|
|-------------------|--------------------|
|-------------------|--------------------|
|--6----------------|--5-----------------|
|-------------------|--------------------|
|--4----------------|--3-----------------|


  B                       N.C.
   PM--|                         ~~~~
   E E  E E  E  E  E  E     Q   +Q    Q       +E   +E
|-----------------12----|------------19b21===(19)r(19)-||
|-----------13-12----12-|--11--(11)--17b19===(17)r(17)-||
|---------9-------------|------------------------------||
|-----------------------|------------------------------||
|--7-9-10---------------|------------------------------||
|-----------------------|------------------------------||
|
|                                            Gtrs I, II
|  W                        H         Q.            E
|-----------------------|------------------------------||
|-----------------------|------------------------------||
|-----------------------|------------------------------||
|-/9--------------------|------------------------------||
|-----------------------|------------------------------||
|-/7--------------------|-/13--------12-------------0--||


 Bridge
  N.C.
    >
    ~~~~~~~~~~~~~~~~~~~~~~~
   +W                  +W
|-(19)--------------|-(19)---------------|
|-(17)--------------|-(17)---------------|
|-------------------|--------------------|
|-------------------|--------------------|
|-------------------|--------------------|
|-------------------|--------------------|
|
|  +Q   E E E E E E     E  E E E E E E E
|-------------------|--------------------|
|-------------------|--------------------|
|-------------------|--------------------|
|-------6---6-------|---6--9-6---6-------|
|---------8---8-7h8-|----------8---8-7---|
|--(0)--------------|------------------0-|
|
| Gtr II
|  +Q   E E E E E E     E  E E E E E E E
|-------------------|--------------------|
|-------------------|--------------------|
|-------4---4-------|---4--7-4---4-------|
|---------6---6-5-6-|----------6---6-5---|
|-------------------|--------------------|
|--(0)--------------|------------------0-|


   +Q    H.            W
|-(19)\--------------|-----------------|
|-(17)\--------------|-----------------|
|--------------------|-----------------|
|--------------------|-----------------|
|--------------------|-----------------|
|--------------------|-----------------|
|
|                PM------------------|
|  +Q    E E E E E E   E E E E E E E E
|--------------------|-----------------|
|--------------------|-----------------|
|--------------------|-----------------|
|------------------5-|-------8-7-5-----|
|--------8p7-8p7-----|-8-7---------8---|
|--(0)-----------0---|-----0---------0-|
|
|                PM------------------|
|  +Q    E E E E E E   E E E E E E E E
|--------------------|-----------------|
|--------------------|-----------------|
|--------------------|-----------------|
|--------------------|-------5-3-2-----|
|--------5p3-5p3---5-|-3-2---------5---|
|--(0)-----------0---|-----0---------0-|


  Gtr I
                                                    PM------------------|
  +Q   E E E E E E   E E E E E E E E   +Q   E E E E E E   E E E E E E E E
|------------------|-----------------|------------------|-----------------||
|------------------|-----------------|------------------|-----------------||
|------------------|-----------------|------------------|-----------------||
|------6---6-------|-6-9-6---6-------|----------------5-|-------8-7-5-----||
|--------8---8-7h8-|-------8---8-7---|------8p7-8p7-----|-8-7---------8-7-||
|-(0)--------------|---------------0-|-(0)----------0---|-----0-----------||
|
| Gtr II
|                                                   PM------------------|
| +Q   E E E E E E   E E E E E E E E   +Q   E E E E E E   E E E E E E E E
|------------------|-----------------|------------------|-----------------||
|------------------|-----------------|------------------|-----------------||
|------4---4-------|-4-7-4---4-------|------------------|-----------------||
|--------6---6-5-6-|-------6---6-5---|------------------|-------5-3-2-----||
|------------------|-----------------|------5p3-5p3---5-|-3-2---------5---||
|-(0)--------------|---------------0-|-(0)----------0---|-----0---------0-||


 Pre-Chorus
  N.C.                                                                 E5
  Gtrs I, II
      PM        PM          PM                 PM        PM
  E E E E +E  E E E   +E  E E  E E E E E   E E E E +E  E E E   +E  E E E Q  Q
|-------------------|--------------------|-------------------|-----------------|
|-------------------|--------------------|-------------------|-----------------|
|-------------------|--------------------|-------------------|-----------------|
|-8-8---7-(7)-7---5-|-(5)-5---/8-8-8-8-8-|-8-8---7-(7)-7---5-|-(5)-5-5-2-2--2--|
|-------------------|--------------------|-------------------|---------2-2--2--|
|-6-6-0-5-(5)-5-0-3-|-(3)-3-0-/6-6-6-6-6-|-6-6-0-5-(5)-5-0-3-|-(3)-3-3-0-0--0--|


  N.C.
      PM        PM          PM         PM
  E E E E +E  E E E   +E  E E  E E E E E
|-------------------|--------------------|
|-------------------|--------------------|
|-------------------|--------------------|
|-8-8---7-(7)-7---5-|-(5)-5---/8-8-8-8---|
|-------------------|--------------------|
|-6-6-0-5-(5)-5-0-3-|-(3)-3-0-/6-6-6-6-0-|


  F5       D5E5   F5/C    D5E5/B
                PM
   S  S  E E Q  E  E  E   E Q.   H      W
|-----------------------|-------------|------||
|-----------------------|-------------|------||
|-10-10-10-7-9----------|-------------|------||
|-10-10-10-7-9----10-10-|-7-9---------|------||
|--8--8--8-5-7-----8--8-|-5-7---------|------||
|---------------0--8--8-|-5-7---------|------||


   Chorus
    N.C.
                                ~                                ~
    Q  Q  E E E E   E E E E E E Q    Q  Q  E E E E   E E E E E E Q
||----------------|----------------|---------------|------------------||
||o---------------|----------------|---------------|-----------------o||
||----------------|----------------|---------------|------------------||
||----------------|----------------|---------------|-------------3----||
||o---------1-----|---2-------1----|---------1-----|---2-------1-----o||
||--0--0--3---3-0-|-1---1-0-3---3--|-0--0--3---3-0-|-1---1-0-3--------||


  N.C.
                                  ~~                                   ~~
  Q  Q   E E  E E   E E E E  E E  Q    Q  Q   E E  E E   E E E E  E E  Q
|-----------------|------------------|-----------------|------------------|
|-----------------|------------------|-----------------|------------------|
|-----------------|------------------|-----------------|--------------10--|
|----------8------|---9--------8-----|----------8------|---9--------8-----|
|-------10---10-7-|-8---8-7-10---10--|-------10---10-7-|-8---8-7-10-------|
|-0--0------------|------------------|-0--0------------|------------------|


                                  ~~
  Q  Q   E E  E E   E E E E  E E  Q
|-----------------|------------------|
|-----------------|------------------|
|-----------------|------------------|
|----------8------|---9--------8-----|
|-------10---10-7-|-8---8-7-10---10--|
|-0--0------------|------------------|


                    F5
  Q  Q  E E E E   E E E E E E E E   E E E E E Q.
|---------------|-----------------|----------------|
|---------------|-----------------|----------------|
|---------------|-----------------|----------------|
|---------------|---3---3---3---3-|---3---3---3----|
|---------1-----|---3---3---3---3-|---3---3---3----|
|-0--0--3---3-0-|-0-1p0-1p0-1p0-1p|=0-1p0-1p0-1----|


  W          W
|----------|------*|
|----------|------*|
|----------|------*|
|----------|------*|
|----------|------*|
|----------|------*|



Duration Legend
---------------
W - whole; H - half; Q - quarter; E - 8th; S - 16th; T - 32nd; X - 64th; a - acciaccatura
+ - note tied to previous; . - note dotted; .. - note double dotted
Uncapitalized letters represent notes that are staccato (1/2 duration)
Irregular groupings are notated above the duration line
Duration letters will always appear directly above the note/fret number it represents the
duration for.  Duration letters with no fret number below them represent rests.  Multi-
bar rests are notated in the form Wxn, where n is the number of bars to rest for.  Low
melody durations appear below the staff

Tablature Legend
----------------
 h   - hammer-on
 p   - pull-off
 b   - bend
 pb  - pre-bend
 r   - bend release (if no number after the r, then release immediately)
 /\  - slide into or out of (from/to "nowhere")
 s   - legato slide
 S   - shift slide
 - natural harmonic
[n]  - artificial harmonic
n(n) - tapped harmonic
 ~   - vibrato
 tr  - trill
 T   - tap
 TP  - trem. picking
 PM  - palm muting
\n/  - tremolo bar dip; n = amount to dip
 \n  - tremolo bar down
 n/  - tremolo bar up
/n\  - tremolo bar inverted dip
 =   - hold bend; also acts as connecting device for hammers/pulls
 <> - volume swell (louder/softer)
 x   - on rhythm slash represents muted slash
 o   - on rhythm slash represents single note slash

Misc Legend
-----------
 |  - bar
||  - double bar
||o - repeat start
o|| - repeat end
*|  - double bar (ending)
 :  - bar (freetime)
 $  - Segno
 &  - Coda
Tempo markers -  = BPM(8/16=s8/s16), where s8 = swing 8ths, s16 = swing 16ths
            

comments powered by Disqus
↑ Back to top | Haunted Tabs for 99. Lyrics for acoustic guitar and electric guitar. Tablatures and chords are parodies/interpretations of the original songs. You may use it for private study, scholarship, research or language learning purposes only