» » »

I Got No Idols Chords (ver.1)

Artists:  A B C D E F G H I J K L M N O P Q R S T U V W X Y Z # 

I Got No Idols Chords (ver.1)

Hatfield Juliana
Rating:
0/5 (0 votes)

Hard to play? Try these video lessons and learn fast.
                MIME-version: 1.0


                        I Got No Idols
                                               Juliana Hatfield

   Everything is tuned down a whole step

   Intro and Chorus
   
E---0--0----3--3--3----5--5----3--3--3                                                                                                                                                                         
B---0--0----3--3--3----5--5----3--3--3
G---1--1----4--4--4----6--6----4--4--4  
D---2--2----5--5--5----7--7----5--5--5                     
A---2--2----5--5--5----7--7----5--5--5                     
E---0--0----3--3--3----5--5----3--3--3                    

            play after intro and during verses
 
 E--------0---------------------5---------------------------
 B----------0---------------------5-------------------------
 G--1-------------------------------------------------------
 D--2--2------------------------------5---7---7--7---5---8--
 A--2--2------5-5-5-4-2----2/5--------5---7---7--7---5---8-- 
 E--0--0------------------------------3---5---5--5---3---6--

 thats about all...This is the first time i've typed this out something out
 so it might not be exact.  But its really easy to get it right if you just
 play along with the CD.

 Ricky Cancro
            
Hard to play? Try these video lessons and learn fast. | Correct




comments powered by Disqus
↑ Back to top | Tablatures and chords are parodies/interpretations of the original songs. You may use it for private study, scholarship, research or language learning purposes only