>
 >
Roadside 1

Roadside 1 Guitar Tabs

Hater - Roadside 1 chords, tabs, tablatures, lyrics

Guitar lessons | Add/correct | Request | Top 50 tabs Artists:  A B C D E F G H I J K L M N O P Q R S T U V W X Y Z 0-9

Roadside 1 Guitar Tabs – Hater

CD, Sheet music, Poster

Do you like Roadside 1? Share with your friends now
TabsTabs v2
Intro:

e|-------------------------------------------------------------------------|
B|-------------------------------------------------------------------------|
G|11--11-11-11-9-8-6/4-4-4---4-4-4-----------------------------------------|
D|-------------------------------------------------------------------------|
A|-------------------------------------------------------------------------|
D|-9---9--9--9-7-6-4/2-2-2---2-2-2-----------------------------------------|

e|-------------------------------------------------------------------------|
B|-------------------------------------------------------------------------|
G|-6\2-2-2--2-2-4-6\2-2-2--2-2-4-6\2-2-2--2-2/11---------------------------|
D|-------------------------------------------------------------------------|
A|-------------------------------------------------------------------------|
D|-4\0-0-0--0-0-2-4\0-0-0--0-0-2-4\0-0-0--0-0/9----------------------------|

Verse:

e|-------------------------------------------------------------------------|
B|-------------------------------------------------------------------------|
G|11--11-11-11-9-8-6/4-4-4---4-4-4-----------------------------------------|
D|-9---9--9--9-7-6-4/2-2-2---2-2-2-----------------------------------------|
A|-9---9--9--9-7-6-4/2-2-2---2-2-2-----------------------------------------|
D|-9---9--9--9-7-6-4/2-2-2---2-2-2-----------------------------------------|

e|-------------------------------------------------------------------------|
B|-------------------------------------------------------------------------|
G|-6\2-2-2--2-2-4-6\2-2-2--2-2-4-6\2-2-2--2-2/11---------------------------|
D|-4\0-0-0--0-0-2-4\0-0-0--0-0-2-4\0-0-0--0-0/9----------------------------|
A|-4\0-0-0--0-0-2-4\0-0-0--0-0-2-4\0-0-0--0-0/9----------------------------|
D|-4\0-0-0--0-0-2-4\0-0-0--0-0-2-4\0-0-0--0-0/9----------------------------|

Bridge:

e|-------------------------------------------------------------------------|
B|-------------------------------------------------------------------------|
G|-4--4-4-4-4-4-6-7--7-7-7-7-7-8-9--9-9-9--8--6--4--4-4-4-4-4-4------------|
D|-2--2-2-2-2-2-4-5--5-5-5-5-5-6-7--7-7-7--6--4--2--2-2-2-2-2-2------------|
A|-2--2-2-2-2-2-4-5--5-5-5-5-5-6-7--7-7-7--6--4--2--2-2-2-2-2-2------------|
D|-2--2-2-2-2-2-4-5--5-5-5-5-5-6-7--7-7-7--6--4--2--2-2-2-2-2-2------------|

If you wanna make the epic intro/verse riff even heavier, you can just slide between all 
notes like this:

Intro:

e|-------------------------------------------------------------------------|
B|-------------------------------------------------------------------------|
G|11--11-11-11\9-9\8-8\6-6\4-4-4--4-4-4------------------------------------|
D|-------------------------------------------------------------------------|
A|-------------------------------------------------------------------------|
D|-9---9--9--9\7-7\6-6\4-4\2-2-2--2-2-2------------------------------------|

e|-------------------------------------------------------------------------|
B|-------------------------------------------------------------------------|
G|-6\2-2-2--2-2/4-4/6-6\2-2-2--2-2/4-4/6-6\2-2-2--2-2/11-------------------|
D|-------------------------------------------------------------------------|
A|-------------------------------------------------------------------------|
D|-4\0-0-0--0-0/2-2/4-4\0-0-0--0-0/2-2/4-4\0-0-0--0-0/9--------------------|

Verse:

e|-------------------------------------------------------------------------|
B|-------------------------------------------------------------------------|
G|11--11-11-11\9-9\8-8\6-6\4-4-4--4-4-4------------------------------------|
D|-9---9--9--9\7-7\6-6\4-4\2-2-2--2-2-2------------------------------------|
A|-9---9--9--9\7-7\6-6\4-4\2-2-2--2-2-2------------------------------------|
D|-9---9--9--9\7-7\6-6\4-4\2-2-2--2-2-2------------------------------------|

e|-------------------------------------------------------------------------|
B|-------------------------------------------------------------------------|
G|-6\2-2-2--2-2/4-4/6-6\2-2-2--2-2/4-4/6-6\2-2-2--2-2/11-------------------|
D|-4\0-0-0--0-0/2-2/4-4\0-0-0--0-0/2-2/4-4\0-0-0--0-0/9--------------------|
A|-4\0-0-0--0-0/2-2/4-4\0-0-0--0-0/2-2/4-4\0-0-0--0-0/9--------------------|
D|-4\0-0-0--0-0/2-2/4-4\0-0-0--0-0/2-2/4-4\0-0-0--0-0/9--------------------|


Enjoy, and please rate.





Comments


Popular Hater tabs & chords
Circles Tabs
Circles 1 Tabs
Lion And Lamb Tabs
Putrid Tabs
Putrid 1 Tabs
Roadside Tabs
Tot Finder Tabs
Tot Finder 1 Tabs
Who Do I Kill Tabs
Who Do I Kill 1 Tabs


Song lyrics



↑ Back to top | Tablatures and chords are parodies/interpretations of the original songs. You may use it for private study, scholarship, research or language learning purposes only
© 2014 AZChords.com Contact us | Privacy policy | DMCA | Add/correct tabs | Request tabs | Top 50 tabs