» » »

Lion And Lamb Tabs (ver.1)

Artists:  A B C D E F G H I J K L M N O P Q R S T U V W X Y Z # 

Lion And Lamb Tabs (ver.1)

Hater
Rating:
0/5 (0 votes)

Hard to play? Try these video lessons and learn fast.
                Guitar 1:

e|----------------0---|
B|---0---0---0----0---|
G|---0---0---0----0---|
D|---7---7---7----3---|
A|---8---8---8----3---|
E|---7---8---7----1---| X3

e|-------------------0----0--|
B|-------------------0----0--|
G|-------------------2----2--|
D|---7-----7-----7---0----0--|
A|---8-----8-----8---X-------|
E|---7-----8-----7---1-------|


Guitar 2:

e|--------------------|
B|--------------------|
G|----------------2---|
D|---9---10---9---3---|
A|---X---X---X----0---|
E|---7---8---7----1---| X3

e|-----------------------------------|
B|-----------------------------------|
G|-------------------9---9-9h12p9-10-|
D|---9-----10----9---0---------------|
A|---X-----X-----X---8---------------|
E|---7-----8-----7---10--------------|
            
Hard to play? Try these video lessons and learn fast. | Correct




comments powered by Disqus
↑ Back to top | Tablatures and chords are parodies/interpretations of the original songs. You may use it for private study, scholarship, research or language learning purposes only