» » »

Vendetta Tabs (ver.1)

Artists:  A B C D E F G H I J K L M N O P Q R S T U V W X Y Z # 

Vendetta Tabs (ver.1)

Hate Processor
Rating:
0/5 (0 votes)

Tabs too difficult? Try these video lessons and learn fast.
                Tuning - Drop B
Riff 1:                          Riff 2:
-|-------------------------------|-----------------------------|
-|-------------------------------|-----------------------------|
-|-------------------------------|-----------------------------|
-|-------------------------------|-----------------------------|
-|-0--6-5-6-5-3---0--6-5-6-5-3---|-0--8-7-8-7-5---0--8-7-8-7-5-|
-|-0--6-5-6-5-3---0--6-5-6-5-3---|-0--8-7-8-7-5---0--8-7-8-7-5-|

Riff 3:
-|------------------------|
-|------------------------|
-|------------------------|
-|------------------------|
-|-0--6-5-6-5-6---3---0---|
-|-0--6-5-6-5-6---3---0---|

Then thrash about on the high strings!!!
            
Tabs too difficult? Try these video lessons and learn fast.


comments powered by Disqus
↑ Back to top | Tablatures and chords are parodies/interpretations of the original songs. You may use it for private study, scholarship, research or language learning purposes only