» » »

The Low Tabs (ver.1)

Artists:  A B C D E F G H I J K L M N O P Q R S T U V W X Y Z # 

The Low Tabs (ver.1)

Hate Processor
Rating:
0/5 (0 votes)

Hard to play? Try these video lessons and learn fast.
                Tuning - Drop A
Riff 1:
-|---------------------------------------------------------|
-|---------------------------------------------------------|
-|---------------------------------------------------------|
-|---------------------------------------------------------|
-|-1-0-1-0--0--0-3-0-1-0--0--0-1-0-1-0--0--0-3-0-1-0--0--0-|
-|-1-0-1-0--0--0-3-0-1-0--0--0-1-0-1-0--0--0-3-0-1-0--0--0-|

Riff 2:
-|-------------------------------------|
-|-------------------------------------|
-|-------------------------------------|
-|-------------------------------------|
-|-100-1-0-1-0--0--0-310-1-0-1-0--0--0-|
-|-100-1-0-1-0--0--0-310-1-0-1-0--0--0-|

Then thrash about!!!
            
Hard to play? Try these video lessons and learn fast. | Correct




comments powered by Disqus
↑ Back to top | Tablatures and chords are parodies/interpretations of the original songs. You may use it for private study, scholarship, research or language learning purposes only