» » »

Rehan Tabs (ver.1)

Artists:  A B C D E F G H I J K L M N O P Q R S T U V W X Y Z # 

Rehan Tabs (ver.1)

Hate Processor
Rating:
0/5 (0 votes)

Hard to play? Try these video lessons and learn fast.
                Tuning - Drop B
Riff 1:
-|-------------------------|---------|-----|
-|-------------------------|---------|-----|
-|-------------------------|---------|-----|
-|-------------------------|---------|-----|
-|-0-2---0-2---0-2---0-2---|-0-2-3-2-|-0-2-|
-|-0-2---0-2---0-2---0-2---|-0-2-3-2-|-0-2-|

Riff 2:
-|----------------------------------------------------|--------|
-|----------------------------------------------------|--------|
-|----------------------------------------------------|--------|
-|----------------------------------------------------|--------|
-|-0-2-3-2-0---0-2-3-2-0---0-2-3-2-0---0-2-3-2-8--8---|-10-----|
-|-0-2-3-2-0---0-2-3-2-0---0-2-3-2-0---0-2-3-2-8--8---|-10-----|

Riff 3:
-|-------------------------|------|
-|-------------------------|------|
-|-------------------------|------|
-|-------------------------|------|
-|-0-2-3-2-0-3-2-0-6-6-6-6-|-0----|
-|-0-2-3-2-0-3-2-0-6-6-6-6-|-0----|
            
Hard to play? Try these video lessons and learn fast. | Correct




comments powered by Disqus
↑ Back to top | Tablatures and chords are parodies/interpretations of the original songs. You may use it for private study, scholarship, research or language learning purposes only