» » »

Hate Processor, Old Lady Tabs (ver.1)

Artists:  A B C D E F G H I J K L M N O P Q R S T U V W X Y Z # 

Old Lady Tabs (ver.1)

Hate Processor Tabs
Rating:
0/5 (0 votes)
Hard to play? Try these video lessons and learn fast.
                Tuning: Drop B
Riff 1:
-|--------------------------------------------|
-|--------------------------------------------|
-|--------------------------------------------|
-|--------------------------------------------|
-|-0-00-1-0-3--0-3--0-3--0-00-1-0-3--0-3--0-3-|
-|-0-00-1-0-3--0-3--0-3--0-00-1-0-3--0-3--0-3-|

Riff 2:
-|--------------------------|
-|--------------------------|
-|--------------------------|
-|--------------------------|
-|-0-3-3-0-3--0-0-3-0-0-8-8-|
-|-0-3-3-0-3--0-0-3-0-0-8-8-|

Outro :
-|--------------------------------------------|
-|--------------------------------------------|
-|--------------------------------------------|
-|--------------------------------------------|
-|-0-00-1-0-3--0-3--0-3--0-00-1-0-3--0-1--0-0-|
-|-0-00-1-0-3--0-3--0-3--0-00-1-0-3--0-1--0-0-|
            

comments powered by Disqus
↑ Back to top | Hate Processor Tabs for Old Lady. Lyrics for acoustic guitar and electric guitar. Tablatures and chords are parodies/interpretations of the original songs. You may use it for private study, scholarship, research or language learning purposes only