» » »

Electrocuted Tabs (ver.1)

Artists:  A B C D E F G H I J K L M N O P Q R S T U V W X Y Z # 

Electrocuted Tabs (ver.1)

Hate Processor
Rating:
0/5 (0 votes)

Hard to play? Try these video lessons and learn fast.
                Tuning - Drop B
-|--------------|---------------|--------------|---------------|
-|--------------|---------------|--------------|---------------|
-|--------------|---------------|--------------|---------------|
-|--------------|---------------|--------------|---------------|
-|-0--0--0--0-0-|-0--0-3-00-000-|-0--0--0--0-0-|-0--0-3-00-000-|
-|-0--0--0--0-0-|-0--0-3-00-000-|-0--0--0--0-0-|-0--0-3-00-000-|

-|---------------|---------------|---------------|-------|
-|---------------|---------------|---------------|-------|
-|---------------|---------------|---------------|-------|
-|---------------|---------------|---------------|-0-----|
-|-0--0-2-00-000-|-0--0-3-00-000-|-0--0-2-00-000-|-0-----|
-|-0--0-2-00-000-|-0--0-3-00-000-|-0--0-2-00-000-|-0-----|

Then thrash about on high notes!!!
            
Hard to play? Try these video lessons and learn fast. | Correct




comments powered by Disqus
↑ Back to top | Tablatures and chords are parodies/interpretations of the original songs. You may use it for private study, scholarship, research or language learning purposes only