» » »

Push It Tabs (ver.1)

Artists:  A B C D E F G H I J K L M N O P Q R S T U V W X Y Z # 

Push It Tabs (ver.1)

Hate Plow
Rating:
0/5 (0 votes)

Hard to play? Try these video lessons and learn fast.
                E----------------------
B--------------------
G--------------------    Repeat multiple times 
D--------------------
A-----4-2-0---------------
E--2---------4-0-0-4-5-4-0----------

E-----------------------
B-----------------------
G------------------------
D----------------------------
A-----4-2-0-----------------------
E--2----------4-0-0-4-5-4-0---------------- 

E------------------------
B-------------------------
G---------------------------
D---------------------------
A-----4-2-0----------------------
E--2-----------4-0-0-4-5-4-0-----------------
            
Hard to play? Try these video lessons and learn fast. | Correct




comments powered by Disqus
↑ Back to top | Tablatures and chords are parodies/interpretations of the original songs. You may use it for private study, scholarship, research or language learning purposes only