» » »

Hate Plow, Low Rider Tabs (ver.1)

Artists:  A B C D E F G H I J K L M N O P Q R S T U V W X Y Z # 

Low Rider Tabs (ver.1)

Hate Plow Tabs
 Rating:
4/5 (4 votes)
Low Rider lessons Tabs too difficult? Try these video lessons and learn fast
1
                E—7-7-7-7-7--8-10-------7-8-7-
B-------------------------8------------8
G-------------------------------------        Repeat 4 times 
D---------------------------------
A-----------------------------------
E -------------------------------- 

E-----------------------------
B----8-8-8------8-8-8----------------
G----------------------------10-------
D------------------------
A-------------------
E------------------------

E—-----------7-7-7-7-----9-10-11-
B-----------------------------------
G---------------------------
D------------------------                          
A------------------------------
E--------------------------- 

E----------7-9-10-11-12---11-10-9-5--------
B---------------------
G------------------------
D----------------------
A-------------------
E-----------------------  

E----------------------------
B-----6-6-6-6-6-6-----6-8------6-8-------------
G----------------------------
D--------------------------------------
A-----------------------------------
E----------------------------------------
            
Submit corrections

comments powered by Disqus
↑ Back to top | Hate Plow Tabs for Low Rider. Lyrics for acoustic guitar and electric guitar. 1 Tablatures and chords are parodies/interpretations of the original songs. You may use it for private study, scholarship, research or language learning purposes only