» » »

Whom Gods May Destroy Tabs (ver.1)

Artists:  A B C D E F G H I J K L M N O P Q R S T U V W X Y Z # 

Whom Gods May Destroy Tabs (ver.1)

Hate Eternal
Rating:
0/5 (0 votes)

Tabs too difficult? Try these video lessons and learn fast.
                band;hate eternal
song;whom gods may destroy
album; fury and flames
tuning from low to high c#,f#,b,e,g#,c#
putting in standard so its easier to read
 this was the best that i could come up with the song none of this sh*t is easy
main intro
e---------------------------------------------------------------------------|
b---------------------------------------------------------------------------|
g---------------------------------------------------------------------------|
d-----------------------------------------3h5p3h5-4h6p4h6-5h7p5h7-8h10p8h10-|
a-6665-6665-6665-6665-6665-6665-6665-6665-----------------------------------|
e---------------------------------------------------------------------------|

intro continued play the intro 2 times

e-------------------------------------------------------|
b-------------------------------------------------------|
g-------------------------------------------------------|
d---------------------------------666666---555555333333-|
a-6665-6665-6665-6665-6665-6665-0-555555-0-444444222222-|
e-------------------------------0--------0--------------|
                                .        .
riff 1
e----------------------------------------------------------------------------|
b----------------------------------------------------------------------------|
g----------------------------------------------------------------------------|
d--------------8-7-9/10/9--------------8-7-6/7/6--------------8-6-9-7-888888-|
a----------------------------------------------------------------------------|
e-666666555555-6-5-7/-8/7-666666555555-6-5-4/5/4-666666555555-6-4-7-5--------|
  ............            ............           ............

riff 2 play this 4 times

e------------------|
b------------------|
g------------------|
d--------8-5-7-6-4-|
a------------------|
e-000000-6-3-5-4-2-|
  ......

intro again play this 2 times again

e-----------------------------------------------------------------|
b-----------------------------------------------------------------|
g-----------------------------------------------------------------|
d-------------------------------3h5p3h5-4h6p4h6-5h7p5h7-8h10p8h10-|
a-6665-6665-6665-6665-6665-6665-----------------------------------|
e-----------------------------------------------------------------|

intro continued again
e-------------------------------------------------------|
b-------------------------------------------------------|
g-------------------------------------------------------|
d---------------------------------666666---555555333333-|
a-6665-6665-6665-6665-6665-6665-0-555555-0-444444222222-|
e-------------------------------0--------0--------------|
                                .        .
riff 2 again played 4 times

e------------------|
b------------------|
g------------------|
d--------8-5-7-6-4-|
a------------------|
e-000000-6-3-5-4-2-|
  ......

riff 3 note the beginning of this riff those are 11's

e---------------------------------------------------------------------------|
b---------------------------------------------------------------------------|
g---------------------------------------------------------------------------|
d-111111111111--5h7p5h7-5h7p5h7-8h10p8h10-8h10p8h10-5h7p5h7-5h7p5h7-4h5p4h5-|
a---------------------------------------------------------------------------|
e---------------------------------------------------------------------------|

riff 3 continued

e-----------------------------------------------------------------------|
b-----------------------------------------------------------------------|
g-----------------------------------------------------------------------|
d-4h5p4h5-3h4p3h4-5h7p5h7-5h7p5h7-8h10p8h10-10h12p10h12-5h7p5h7-5h7p5h7-|
a-----------------------------------------------------------------------|
e-----------------------------------------------------------------------|

riff 4 play this 2 times note those are 1's

e--------------------------------------------------------------------|
b--------------------------------------------------------------------|
g--------------------------------------------------------------------|
d--------------------------------------------------------------------|
a--------------------------------------------------------------------|
e-222222333333222222000000111111999999666666444444000000222222555555-
  ..................................................................

riff 3 again but play it 2 times

e---------------------------------------------------------------------|
b---------------------------------------------------------------------|
g---------------------------------------------------------------------|
d-5h7p5h7-5h7p5h7-8h10p8h10-8h10p8h10-5h7p5h7-5h7p5h7-4h5p4h5-4h5p4h5-|
a---------------------------------------------------------------------|
e---------------------------------------------------------------------|

riff 3 continued remember play riff 3 2 times
e---------------------------------------------------------------|
b---------------------------------------------------------------|
g---------------------------------------------------------------|
d-3h4p3h4-5h7p5h7-5h7p5h7-8h10p8h10-10h12p10h12-5h7p5h7-5h7p5h7-|
a---------------------------------------------------------------|
e---------------------------------------------------------------|

riff 4 again this time play it 4 times
e--------------------------------------------------------------------|
b--------------------------------------------------------------------|
g--------------------------------------------------------------------|
d--------------------------------------------------------------------|
a--------------------------------------------------------------------|
e-222222333333222222000000111111999999666666444444000000222222555555-
  ..................................................................

riff 5 play this 4 times
note the chord spaced out ends the song dont play it with the other chords
e--------------------------------|
b--------------------------------|
g--------------------------------|
d-333333666666555555777777444444-      5/////
a-222222555555444444666666333333-
e-111111444444333333555555222222-      3////
            
Tabs too difficult? Try these video lessons and learn fast.




comments powered by Disqus
↑ Back to top | Tablatures and chords are parodies/interpretations of the original songs. You may use it for private study, scholarship, research or language learning purposes only