» » »

Two Demons Tabs (ver.3)

Artists:  A B C D E F G H I J K L M N O P Q R S T U V W X Y Z # 

Two Demons Tabs (ver.3)

Hate Eternal
Rating:
0/5 (0 votes)

Tabs too difficult? Try these video lessons and learn fast.
                Hate Eternal - Two Demons Solo

C# Tuning (Tune down 1.5 steps)

 2:28   WHOLE SOLO PLAYED WITH WAH ON
|-------------------------------------------------------------------------|
|---------19-----19------19-------19------19/20\19---19-------------------|
|-------------------------------------------------------------------------|
|-(15/16)---16/17--17/16----16/15---(15/16)--------16---(15/16)-----------|
|-------------------------------------------------------------------------|
|--------PLAYED-SORT-OF-SLOPPY-WITH-WAH-GATE-CLOSED-----------------------|
   2:32
|-------------------------------------------------------------------------|
|--/18-19-18h19p18---18---------------------------------------------------|
|-----------------19---19p18--19-18h19p18p16--18-16-15-15h16-(18)-18b19~~~|
|-------------------------------------------------------------------------|
|-------------------------------------------------------------------------|
|-------------------------------------------------------------------------|
  2:36
|-------------------------------------------------------------------------|
|-------------------------------------STACCATO----------------------------|
|--/16~-/15~~~-/12~-/11~~~--/9~-/8~~~-8.-9.-11.11b12r11~~~~---------------|
|-------------------------------------------------------------------------|
|-------------------------------------------------------------------------|
|-------------------------------------------------------------------------|
  2:39
|---------ALL-----THESE-----NOTES-----TREMOLO-----PICKED------------------|
|-------------------------------------------------------------------------|
|--------------14h16h17--17171717-17p16p14--------------------------------|
|------14h16h17---------------------------17p16p14------------------------|
|--------------------------------------------------17p15p14-14~~~~~-------|
|-------------------------------------------------------------------------|
  2:42
|-------------------------------------------------------------------------|
|-----------------------------------------------------15-17-15h17p15------|
|-----------------14-16-14h16p14--14---------14-16-17---------------17p16-|
|---14---14-16-17---------------17--17-16-14------------------------------|
|-14--14------------------------------------------------------------------|
|-------------------------------------------------------------------------|

|--------------------------------------19b20r19~~~~~--24b25r24------------|
|----------20-18-17h18p17-----17b18r17------------------------------------|
|------------------------19-----------------------------------------------|
|-------------------------------------------------------------------------|
|-------------------------------------------------------------------------|
|-------------------------------------------------------------------------|
  2:50
|-/20-19------------------------------------------------------------------|
|--------/20-19--/15------------------------------------------------------|
|--------------------/17-16~~~~~~-----------------------------------------|
|-------------------------------------------------------------------------|
|-------------------------------------------------------------------------|
|-------------------------------------------------------------------------|
  2:52
|-------------------------------------17h19h20----22b24r22--20*~~~~~19~~~~|
|----------------------------17h19h20---------------------ACCIDENTAL------|
|-------------------14h16h17-------------------------------PINCH----------|
|----------14h16h17---------------------------------------HARMONIC--------|
|-14h15h17----------------------------------------------------------------|
|---TREMOLO-------PICK-------THESE------NOTES-----------------------------|
            
Tabs too difficult? Try these video lessons and learn fast.




comments powered by Disqus
↑ Back to top | Tablatures and chords are parodies/interpretations of the original songs. You may use it for private study, scholarship, research or language learning purposes only