» » »

Tombeau Le Tombeau De La Fureur Et Des Flammes Tabs (ver.1)

Artists:  A B C D E F G H I J K L M N O P Q R S T U V W X Y Z # 

Tombeau Le Tombeau De La Fureur Et Des Flammes Tabs (ver.1)

Hate Eternal
Rating:
0/5 (0 votes)

Hard to play? Try these video lessons and learn fast.
                Hate Eternal - Tombeau solo

Tune to C# aka 1.5 steps down

                         FULL BEND
     3:03                 RELEASE
C#|------------------------------------------------------------------------|
G#|----/10gfb----10hbPHr~--10br-8~~--10p8p7h8-1010~-7h10-7~~~---8h10-------|
E |----GRADUAL---HOLD-FULL-------------------------------------------------|
B |---FULL-BEND----BEND----------------------------------------------------|
F#|------------PINCH-HARMONIC----------------------------------------------|
C#|-------------RELEASE-BEND-----------------------------------------------|

  CTND   3:03
C#|------------------THIS-IS-ABOVE-RIFF'S-HARMONY--------------------------|
G#|-------------HOLD-FULL--------------------------------------------------|
E |---------------BEND-----------------------------------------------------|
B |----/7gfb-----7hbPHr~---7br-5~~---7p5p4h5--77~---4h7-4~~~---------------|
F#|-----------PINCH-HARMONIC-----------------------------------------------|
C#|------------RELEASE-BEND------------------------------------------------|


     3:13
C#|-/14-----14ghbr-----15p14p12-----------------------------------/19~~~~--|
G#|---------GRADUAL------------15p13p12-----------------12h13h15-----------|
E |-----14-HALF-BEND-------------------14p12p11-11h12h14-------------------|
B |---------RELEASE--------------------------------------------------------|
F#|------------------------------------------------------------------------|
C#|--------------------NECK--PICKUP--ON--AND--ALL--TREMOLO--PICKING--------|
 
                      
     3:17                      ALL      TREMOLO      PICKING 
C#|--17-15-14-15--/19ghbr--------------------------------------------------|
G#|---------------GRADUAL--------------------------------------------------|
E |----------------HALF--17p16p14-------------------------------14h16h17---|
B |----------------BEND-----------17p16p14--------------14h16h17-----------|
F#|---------------RELEASE-----------------17p15p14h15h17-------------------|
C#|------------------------------------------------------------------------|


   3:22          ALL      NOTES      TREMOLO      PICKED
C#|-20p19p17---------------------------------------------------------------|
G#|---------20p19p17-------------------------------------------------------|
E |-----------------17p16p14------------------------14h16h17-16~~~~--------|
B |-------------------------17p16p14--------14h16h17-----------------------|
F#|---------------------------------17p15p14-------------------------------|
C#|------------------------------------------------------------------------|

 
   3:24          ALL       TREMOLO        PICKED
C#|------------------------------------------------------------------------|
G#|-----------------------------------------------------------15-----------|
E |----------14h16h17p16p14-----------------14h16h17--17p16p14-------------|
B |--14h16h17--------------17p16p14-14h16h17-------------------------------|
F#|------------------------------------------------------------------------|
C#|------------------------------------------------------------------------|


CTND.         ALL      TREMOLO       PICKED
C#|----------17h19h20p19p17---------------17h19h20p19p17-------------------|
G#|--17h19h20--------------20p19-17h19h20----------------------------------|
E |------------------------------------------------------------------------|
B |------------------------------------------------------------------------|
F#|------------------------------------------------------------------------|
C#|------------------------------------------------------------------------|
 
                                FULL BEND
    3:28                         RELEASE
C#|-24fbhr--24~~~--22--20--19.20.-20fbr--20.17.-19hbr-19~~~~~~-------------|
G#|--FULL---------(24--22--20.22.-22fbr--22.19.-20hbr-20~~~~~~)------------|
E |--BEND----------------BRACKETS-ARE-HARMONY---HALF------HOLD-VIBRATO-----|
B |-HOLD----------------------------------------BEND------UNTIL-NEXT-------|
F#|-RELEASE------------------------------------RELEASE-------LICK----------|
C#|------------------------------------------------------------------------|


  3:40    ALL   NOTES   ALTERNATE   PICKED    NO   SWEEPS
C#|--19p15--15------20p17--17------22p19-------22-/20p17--------20---------|
G#|-------17--17---------19--19---------20--20----------19---19------------|
E |-------------16-------------19---------19---------------19--------------|
B |------------------------------------------------------------------------|
F#|------------------------------------------------------------------------|
C#|------------------------------------------------------------------------|

    3:44
C#|-/19p15--15-------------------------------------------------------------|
G#|-------17--17----/17----------------------------------------------------|
E |-------------16-----16-14--17.-16h17p14---14----------------------------|
B |---------------------------------------16----16-17-14h16h17-16~~~-------|
F#|------------------------------------------------------------------------|
C#|------------------------------------------------------------------------|

    3:49
C#|------------------------------------------------------------------------|
G#|------------------------------------------------------------------------|
E |----------------------------------------------141617-16~~---------------|
B |--171614-------------141617-16~~~-------141617--------------------------|
F#|--------171514-141517-------------141517--------------------------------|
C#|------------------------------------------------------------------------|


    3:50
C#|------------------------17-192019-----------171917----------------------|
G#|-----------------171920-----------20--171920-------19-------------------|
E |----------141617--------------------------------------------------------|
B |---141617---------------------------------------------------------------|
F#|------------------------------------------------------------------------|
C#|------------------------------------------------------------------------|

     3:52
C#|-/19p15--15-------------------------------------------------------------|
G#|-------17--17----/17----------------------------------------------------|
E |-------------16-----16-14--17.-16h17p14---14----------------------------|
B |---------------------------------------16----16-17-14h16h17-16~~~-------|
F#|------------------------------------------------------------------------|
C#|------------------------------------------------------------------------|

    3:55
C#|------------------------------------------------------------------------|
G#|--------------171920----------------------------------------------------|
E |--------141617----------------------------------------------------------|
B |--141617----------------------------------------------------------------|
F#|------------------------------------------------------------------------|
C#|------------------------------------------------------------------------|


  3:56     ALL   NOTES   ALTERNATE   PICKED    NO   SWEEPS
C#|--19p15--15------20p17--17------22p19-------22-/20p17--------20---------|
G#|-------17--17---------19--19---------20--20----------19---19------------|
E |-------------16-------------19---------19---------------19--------------|
B |------------------------------------------------------------------------|
F#|------------------------------------------------------------------------|
C#|------------------------------------------------------------------------|

    4:00
C#|-/19p15--15-------------------------------------------------------------|
G#|-------17--17----/17----------------------------------------------------|
E |-------------16-----16-14--17.-16h17p14---14----------------------------|
B |---------------------------------------16----16-17-14h16h17-16~~~-------|
F#|------------------------------------------------------------------------|
C#|------------------------------------------------------------------------|

     4:03
C#|------------------------------------------------------------------------|
G#|------------------------------------------------------------------------|
E |----------------------------------------------141617-16~~---------------|
B |--171614-------------141617-16~~~-------141617--------------------------|
F#|--------171514-141517-------------141517--------------------------------|
C#|------------------------------------------------------------------------|

    4:06                                 BRIDGE PICKUP ON UNTIL END
C#|-------------------17-192019----------171920-/17~~~~---------/17-15~~---|
G#|-------------171920---------20--171920--------------17h19h20------------|
E |-------141617-----------------------------------------------------------|
B |-141617-----------------------------------------------------------------|
F#|------------------------------------------------------------------------|
C#|------------------------------------------------------------------------|
   
   4:11
C#|---------17-15-19ghb----19---19~~~20gfbr-17~~~--(19)-19ghb--17-15~~~----|
G#|-17h19h20-------------17--17--------------------------------------------|
E |------------------------------------------------------------------------|
B |------------------------------------------------------------------------|
F#|------------------------------------------------------------------------|
C#|------------------------------------------------------------------------|

   4:20
C#|-17-19~~~-17p15p14~-14h15-/17--15-14------------------------------------|
G#|-------------------------------------17-15-13--13-13/12~~---------------|
E |------------------------------------------------------------------------|
B |------------------------------------------------------------------------|
F#|------------------------------------------------------------------------|
C#|------------------------------------------------------------------------|

    4:25
C#|-----15------------------14--------------------10-----------------------|
G#|--12----13p12-10~~~~--12----12p10--8~~~----7-8----8-7--/5p4h5~~~-7gbr~~-|
E |------------------------------------------------------------------------|
B |------------------------------------------------------------------------|
F#|------------------------------------------------------------------------|
C#|------------------------------------------------------------------------|

    4:33
C#|---------------10-------------------------------------------------------|
G#|--7ghbr~~----7----7-----------------------------------------------------|
E |--------------------9/7--7/5--5/4--4/2--4hbr----------------------------|
B |------------------------------------------------------------------------|
F#|------------------------------------------------------------------------|
C#|------------------------------------------------------------------------|
            
Hard to play? Try these video lessons and learn fast. | Correct




comments powered by Disqus
↑ Back to top | Tablatures and chords are parodies/interpretations of the original songs. You may use it for private study, scholarship, research or language learning purposes only