>
 >
To Know Our Enemies

To Know Our Enemies Guitar Tabs

Hate Eternal - To Know Our Enemies chords, tabs, tablatures, lyrics

Guitar lessons | Add/correct | Request | Top 50 tabs Artists:  A B C D E F G H I J K L M N O P Q R S T U V W X Y Z 0-9

To Know Our Enemies Guitar Tabs – Hate Eternal

CD, Sheet music, Poster

Do you like To Know Our Enemies? Share with your friends now
Tabs
Band:  Hate Eternal

Copyright (c) EARACHE 2005
Version 1.1

.  - palm mute           /  - slide up to
\  - slide down to       ~  - vibrato
h  - hammer on           b  - Bend
p  - pull off            Suffixes for bend
t  - tap                 f  - full bend    h - half bend
ph - pinched harmonic    q  - quarter bend t - tap bend
*  - see comment         ^  - Hold bend    r release bend
x  - Stuccatto           ~  - vibrato bend
,  - slight palm mute    () - ghost note, sustained note
"  - tremolo note        <> - Trill

Tune 3 half Stepps down to: C#, F#, B, E, G#, C#

guitar 1 = left channel
guitar 2 = right channel

RIFF 1 (0:00) both guitars
|--------------------------------------------------------------------|
|--------------------------------------------------------------------|
|--------------------------------------------------------------------|
|-----8-------5-------10-------11-------7-------4-------8-------10---|
|--------------------------------------------------------------------|
|-666-----333-----888------999------555-----222-----666-----888------|
  ...     ...     ...      ...      ...     ...     ...     ...

 -------------------------------------------------------------------||
 -------------------------------------------------------------------||
 -------------------------------------------------------------------||
 -----8-------5-------10-------11-------7-------4---8\7-8-7---5-4-7-||
 -------------------------------------------------------------------||
 -666-----333-----888------999------555-----222-----6\5-6-5---3-2-5-||
  ...     ...     ...      ...      ...     ...

RIFF 1b (0:16) guitar 2 only
|-----------------------------------------------------------------|
|-----------------------------------------------------------------|
|-----------------------------------------------------------------|
|-----5-------8-------7-------8-------4-------7-------5-------7---|
|-----------------------------------------------------------------|
|-333-----666-----555-----666-----222-----555-----333-----555-----|
  ...     ...     ...     ...     ...     ...     ...     ...


 -----------------------------------------------------------------||
 -----------------------------------------------------------------||
 -----------------------------------------------------------------||
 -----5-------8-------7-------8-------4-------7---8\7-8-7---5-4-7-||
 -----------------------------------------------------------------||
 -333-----666-----555-----666-----222-----555-----6\5-6-5---3-2-5-||
  ...     ...     ...     ...     ...     ...


RIFF 2 (0:32) both guitars

|--------3-times---------|--------last-one--------||
|------------------------|------------------------||
|-10-12-11-13-12-14------|-11-13-12-14-13-15------||
|------------------------|------------------------||
|-8--10-9--11-10-12--X-X-|-9--11-10-12-11-13--X-X-||
|-0--0--0--0--0--0---X-X-|-0--0--0--0--0--0---X-X-||
                     . .                      . .

RIFF 2b (0:39) guitar 2 only

|------3-times------|------last-one------||
|-------------------|--------------------||
|-10-8-9-7-8-6------|-11-9-10-8-9-7------||
|-------------------|--------------------||
|-8--6-7-5-6-4--X-X-|-9--7-8--6-7-5--X-X-||
|-0--0-0-0-0-0--X-X-|-0--0-0--0-0-0--X-X-||
                . .                  . .

RIFF 3 (0:46) both guitars
|-----------------------------------------------------|
|-----------------------------------------------------|
|-----------------------------------------------------|
|-----5555----6666----77777-----5555----6666----77777-|
|-----------------------------------------------------|
|-2222----3333----444455555-2-------3333----444455555-|
                            .
 -----------------------------------------------------||
 -----------------------------------------------------||
 -----------------------------------------------------||
 -----5555----6666----77777-----6666----7777----88888-||
 -----------------------------------------------------||
 -2222----3333----444455555-3-------4444----555566666-||
                            .

RIFF 3b (0:53) guitar 2 only
|---------------------------------------------------------------|
|---------------------------------------------------------------|
|---------------------------------------------------------------|
|-----8888----9999----1010101010-----8888----9999----1010101010-|
|---------------------------------------------------------------|
|-5555----6666----77778-8-8-8-8--5-------6666----77778-8-8-8-8--|
                                 .
 -------------------------------------------------------------------||
 -------------------------------------------------------------------||
 -------------------------------------------------------------------||
 -----8888----9999----1010101010-----9999----10101010----1111111111-||
 -------------------------------------------------------------------||
 -5555----6666----77778-8-8-8-8--6-------7777--------88889-9-9-9-9--||
                                 .

again RIFF 2 (1:00)
again RIFF 3 (1:14)

RIFF 4 (1:27) both guitars
|--------------------------------------------|
|--------------------------------------------|
|----------------8---------------------8--8--|
|-4--6--5--7--6--7------4--6--5--7--6--7--7--|
|-3--5--4--6--5--6------3--5--4--6--5--6--6--|
|-2--4--3--5--4--5--0-0-2--4--3--5--4--5--5--|
  .  .  .  .  .     . . .  .  .  .  .

 --------------------------------------------||
 --------------------------------------------||
 ----------------8---------------------9--9--||
 -4--6--5--7--6--7------4--7--6--8--7--8--8--||
 -3--5--4--6--5--6------3--6--5--7--6--7--7--||
 -2--4--3--5--4--5--0-0-2--5--4--6--5--6--6--||
  .  .  .  .  .     . . .  .  .  .  .

RIFF 5 (1:34) both guitars
|--------------------------------------------------------------------||
|--------------------------------------------------------------------||
|-----------------------------------------------------------------9--||
|-446655776688-----4466557766-888-446655776688-----5--7--6--8--7--8--||
|-335544665577-----3355446655-777-335544665577-----4--6--5--7--6--7--||
|-224433554466-000-2244335544-666-224433554466-000-3--5--4--6--5--6--||
                                                   .  .  .  .  .

again RIFF 1 (1:41)

 ending...
 -------------------||
 -------------------||
 -------------------||
 -8\7-8-7---5-4-5-5-||
 -------------------||
 -6\5-6-5---3-2-3-3-||

RIFF 6 (2:14) guitar 1
|--------------------------------------------------------------------|
|--------------------------------------------------------------------|
|-161616161616171717-------------/20202020202019---------------------|
|--------------------------------------------------------------------|
|-141414141414151515-------------/18181818181817---------------------|
|-0-0-0-0-0-0-0-0-0--0-3-2-1-2-0--0-0-0-0-0-0-0--0-1-3-2-0-1-3-2-1-0-|
                     . . . . . .                 . . . . . . . . . .
 endings 1 & 3
 ------------------------------------------------------------------------|
 ------------------------------------------------------------------------|
 -16161616161617171717131313---------------------------------------------|
 ------------------------------------------------------------------------|
 -14141414141415151515111111---------3-----------6-----------5-----------|
 -0-0-0-0-0-0-0-0-0-0-0-0-0--0-2-3-2---0-0-3-4-3---0-0-4-5-4---0-3-2-1-0-|
                             . . . . . . . . . . . . . . . . . . . . . .
 endings 2 & 4
 --------------------------------------------------||
 --------------------------------------------------||
 -161616161616171717171313131313131313131313131313-||
 --------------------------------------------------||
 -141414141414151515151111111111111111111111111111-||
 -0-0-0-0-0-0-0-0-0-0-0-0-0-0-0-0-0-0-0-0-0-0-0-0--||


RIFF 6 (2:14) guitar 2
|--------------------------------------------------------------------|
|--------------------------------------------------------------------|
|-161616161616171717-------------/20202020202019---------------------|
|--------------------------------------------------------------------|
|-141414141414151515-------------/18181818181817---------------------|
|-0-0-0-0-0-0-0-0-0--0-3-2-1-2-0--0-0-0-0-0-0-0--0-1-3-2-0-1-3-2-1-0-|
                     . . . . . .                 . . . . . . . . . .

 all endings
 --------------------------------------------------||
 --------------------------------------------------||
 -161616161616171717171313131313131313131313131313-||
 --------------------------------------------------||
 -141414141414151515151111111111111111111111111111-||
 -0-0-0-0-0-0-0-0-0-0-0-0-0-0-0-0-0-0-0-0-0-0-0-0--||


SOLO (2:52)


RHYTHM RIFF 6b (2:52) guitar 1
|--------------------------------------------------------------------------|
|--------------------------------------------------------------------------|
|-16161616161617171717\-----20202020202019191919\-----16161616161617171717-|
|--------------------------------------------------------------------------|
|-14141414141415151515\-----18181818181817171717\-----14141414141415151515-|
|-0-0-0-0-0-0-0-0-0-0-------0-0-0-0-0-0-0-0-0-0-------0-0-0-0-0-0-0-0-0-0--|

 ------------------------------||
 ------------------------------||
 -1313131313131313131313131313-||
 ------------------------------||
 -1111111111111111111111111111-||
 -0-0-0-0-0-0-0-0-0-0-0-0-0-0--||

RHYTHM RIFF 7 (2:52) guitar 2
|------------------------------------------------------------------------|
|------------------------------------------------------------------------|
|------------------------------------------------------------------------|
|-5-------5-------6-------5-------10-------10-------9----------13--------|
|------------------------------------------------------------------------|
|-3--333-----3/4-----4\3-----3/8--8---888------8\7-----7-/-11------11\3--|
     ...                              ...

 -----------------------------------------------------------------|
 -----------------------------------------------------------------|
 -----------------------------------------------------------------|
 -5-------5-------6-------5-------3-------3-------3-------6-------|
 -----------------------------------------------------------------|
 -3--333-----3/4-----4\3-----3\1--1--111--1--111-----1/4-----4\3--|
     ...                             ...     ...

 ------------------------------------------------------------------------|
 ------------------------------------------------------------------------|
 ------------------------------------------------------------------------|
 -5-------5-------6-------5-------10-------10-------9----------13~~~-----|
 ------------------------------------------------------------------------|
 -3--333-----3/4-----4\3-----3/8--8---888------8\7-----7-/-11------------|
     ...                              ...

 -----------------------------------------------------------------||
 -----------------------------------------------------------------||
 -----------------------------------------------------------------||
 -5-------5-------6-------5-------3-------3-------3-------6-------||
 -----------------------------------------------------------------||
 -3--333-----3/4-----4\3-----3\1--1--111--1--111-----1/4-----4\3--||
     ...                             ...     ...


again RIFF 6 (3:29) guitar 1 / same figure as before on (2:14)


RIFF 6 (3:29) guitar 2 / first time only
|--------------------------------------------------------------------|
|--------------------------------------------------------------------|
|-161616161616171717-------------/20202020202019---------------------|
|--------------------------------------------------------------------|
|-141414141414151515-------------/18181818181817---------------------|
|-0-0-0-0-0-0-0-0-0--0-3-2-1-2-0--0-0-0-0-0-0-0--0-1-3-2-0-1-3-2-1-0-|
                     . . . . . .                 . . . . . . . . . .

 --------------------------------------------------||
 --------------------------------------------------||
 -161616161616171717171313131313131313131313131313-||
 --------------------------------------------------||
 -141414141414151515151111111111111111111111111111-||
 -0-0-0-0-0-0-0-0-0-0-0-0-0-0-0-0-0-0-0-0-0-0-0-0--||

continue... RIFF 6c (3:38) guitar 2
|-------------------------------------------------------------------|
|-------------------------------------------------------------------|
|-121212121212131313-------------17171717171716---------------------|
|-------------------------------------------------------------------|
|-101010101010111111-------------15151515151514---------------------|
|-0-0-0-0-0-0-0-0-0--0-3-2-1-2-0-0-0-0-0-0-0-0--0-1-3-2-0-1-3-2-1-0-|
                     . . . . . .                . . . . . . . . . .

 --------------------------------------------------||
 --------------------------------------------------||
 -121212121212131313131313131313131313131313131313-||
 --------------------------------------------------||
 -101010101010111111111111111111111111111111111111-||
 -0-0-0-0-0-0-0-0-0-0-0-0-0-0-0-0-0-0-0-0-0-0-0-0--||

 ending for guitar 1 (4:04)
 --------------------------------------------------||
 --------------------------------------------------||
 -131313----13131313131313-\-9--9------------------||
 --------------------------------------------------||
 -111111----11111111111111-\-7--9------------------||
 -0-0-0-----0-0-0-0-0-0-0----0--0------------------||

 ending for guitar 2 (4:04)
 --------------------------------------------------||
 --------------------------------------------------||
 -131313----13131313131313--13--13-----------------||
 --------------------------------------------------||
 -111111----11111111111111--11--11-----------------||
 -0-0-0-----0-0-0-0-0-0-0---0---0------------------||

END.





Comments


Popular Hate Eternal tabs & chords
Behold Judas 1 Tabs
Beyond Redemption Tabs
Bringer Of Storms Intro Tabs
In Spirit (The Power Of Mana) Tabs
King Of All Kings 1 Tabs
King Of All Kings Intro Tabs
Path To The Eternal Gods 1 Tabs
The Fire Of Resurrection Tabs
The Obscure Terror Intro Tabs
Tombeau Le Tombeau De La Fureur Et Des Flammes Tabs


Song lyrics



↑ Back to top | Tablatures and chords are parodies/interpretations of the original songs. You may use it for private study, scholarship, research or language learning purposes only
© 2014 AZChords.com Contact us | Privacy policy | DMCA | Add/correct tabs | Request tabs | Top 50 tabs