>
 >
The Victorious Reign

The Victorious Reign Guitar Tabs

Hate Eternal - The Victorious Reign chords, tabs, tablatures, lyrics

Guitar lessons | Add/correct | Request | Top 50 tabs Artists:  A B C D E F G H I J K L M N O P Q R S T U V W X Y Z 0-9

The Victorious Reign Guitar Tabs – Hate Eternal

CD, Sheet music, Poster

Do you like The Victorious Reign? Share with your friends now
Tabs
Band:  Hate Eternal

Copyright (c)  Earache records 2005
Version 1.4 - 03.01.06

.  - palm mute           /  - slide up to
\  - slide down to       ~  - vibrato
h  - hammer on           b  - Bend
p  - pull off            Suffixes for bend
t  - tap                 f  - full bend    h - half bend
ph - pinched harmonic    q  - quarter bend t - tap bend
*  - see comment         ^  - Hold bend    r release bend
x  - Stuccatto           ~  - vibrato bend
,  - slight palm mute    () - ghost note, sustained note
"  - tremolo note        <> - Trill

Tune to c#

Please conntact me if you have any corrections.
Never mind the tab timing, its quite fucked up, so listen to
the song to get it right.

                            3
                                 
Intro (  When sliding up to 1, do it really fast. That goes for
all variantions of this riff.
|---------------------------------------------------------|
|---------------------------------------------------------|
|---------------------------------------------------------|
|-0---8\7-9\3/8\7\6---8\7-9\3\8\7\6---------8\7-9\3/8\7\6-|
|-0---------------------------------7-6-5-----------------|
|-0---6\5-7\1/6\5\4---6\5-7\1/6\5\4---------6\5-7\1/6\5\4-|



Pre-verse riff Guitar 1
|--------------------------------------------------------------------------|
|--------------------------------------------------------------------------|
|--------------------------------------------------------------------------|
|8\7/8-9\3/8-7------8\7/8-9\3/8-6----------8\7/8-9\3/8-7-----------------~-|
|---------------------------------7-6-5-----------------------5-2--4\3/4-4-|
|6\5/6-7\1/6-5-0000-6\5/6-7\1/6-4-------00-6\5/6-7\1/6-5-0000--------------|
|                       
|
|
|Guitar 2
|--------------------------------------------------------------------------|
|--------------------------------------------------------------------------|
|--------------------------------------------------------------------------|
|8\7/8-9\3/8-7------8\7/8-9\3/8-6----------8\7/8-9\3/8-7-------------------|
|---------------------------------7-6-5------------------------------------|
|6\5/6-7\1/6-5-0000-6\5/6-7\1/6-4-------00-6\5/6-7\1/6-5-000000-111111 1-1-|
                         


Guitar 1
|--------------------------------------------------------------------------|
|--------------------------------------------------------------------------|
|--------------------------------------------------------------------------|
|8\7/8-9\3/8-7------8\7/8-9\3/8-6----------8\7/8-9\3/8-7-------------------|
|---------------------------------7-6-5-----------------------5-2----------|
|6\5/6-7\1/6-5-0000-6\5/6-7\1/6-4-------00-6\5/6-7\1/6-5-0000--------------|
|                   
|
|
|Guitar 2
|--------------------------------------------------------------------------|
|--------------------------------------------------------------------------|
|--------------------------------------------------------------------------|
|8\7/8-9\3/8-7------8\7/8-9\3/8-6----------8\7/8-9\3/8-7-------------------|
|---------------------------------7-6-5------------------------------------|
|6\5/6-7\1/6-5-0000-6\5/6-7\1/6-4-------00-6\5/6-7\1/6-5-000000-111111 1-1-|
 


Riff 1
|--------------------------------------------------------------------------|
|--------------------------------------------------------------------------|
|--------------------------------------------------------------------------|
|8\7/8-9\3/8-7------8\7/8-9\3/8-6----------8\7/8-9\3/8-7-----------------~-|
|---------------------------------7-6-5-----------------------5-2--4\3/4-4-|
|6\5/6-7\1/6-5-0000-6\5/6-7\1/6-4-------00-6\5/6-7\1/6-5-0000--------------|


Riff 2a
|-----------------------------------------------------------------|
|-----------------------------------------------------------------|
|-----------------------------------------------------------------|
|--------------------7\6-8\7-9--------------7\6-8\7-9--7\6-8\7-11-|
|-2-5-6-2-4-3--2-5-6------------2-5-6-2-4-3-----------------------|
|-2-5-6-2-4-3--2-5-6-5\4-6\5-7--2-5-6-2-4-3-5\4-6\5-7--5\4-6\5-9--|
  . . . . . .  . . .            . . . . . .


Riff 1
|--------------------------------------------------------------------------|
|--------------------------------------------------------------------------|
|--------------------------------------------------------------------------|
|8\7/8-9\3/8-7------8\7/8-9\3/8-6----------8\7/8-9\3/8-7-----------------~-|
|---------------------------------7-6-5-----------------------5-2--4\3/4-4-|
|6\5/6-7\1/6-5-0000-6\5/6-7\1/6-4-------00-6\5/6-7\1/6-5-0000--------------|



|-----------------------------------------------------------------|
|-----------------------------------------------------------------|
|-----------------------------------------------------------------|
|--------------------7\6-8\7-9--------------7\6-8\7-9--7\6-8\7-11-|
|-2-5-6-2-4-3--2-5-6------------2-5-6-2-4-3-----------------------|
|-2-5-6-2-4-3--2-5-6-5\4-6\5-7--2-5-6-2-4-3-5\4-6\5-7--5\4-6\5-9--|
  . . . . . .  . . .            . . . . . .


Riff 2b Guitar 1
|-----------------------------------------------------------------|
|-----------------------------------------------------------------|
|-----------------------------------------------------------------|
|--------------------7\6-8\7-9--------------7\6-8\7-9--7\6-8\7-11-|
|-2-5-6-2-4-3--2-5-6------------2-5-6-2-4-3-----------------------|
|-2-5-6-2-4-3--2-5-6-5\4-6\5-7--2-5-6-2-4-3-5\4-6\5-7--5\4-6\5-9--|
  . . . . . .  . . .            . . . . . .
|
|
|Guitar 2
|-----------------------------------------------------------------|
|-----------------------------------------------------------------|
|-----------------------------------------------------------------|
|---------------------------------------------------8-7-8--10-8-7-|
|-777777-----------666666------------555555-----------------------|
|---------------------------------------------------6-5-6---8-6-5-|


 Guitar 1
|----------------------------------------------------|
|----------------------------------------------------|
|----------------------------------------------------|
|--------------------7\6-8\7-9--------------7-8-7-10-|
|-2-5-6-2-4-3--2-5-6------------2-5-6-2-4-3----------|
|-2-5-6-2-4-3--2-5-6-5\4-6\5-7--2-5-6-2-4-3-5-6-5-8--|
|
|
|
|
|Guitar 2
|----------------------------------------------------|
|----------------------------------------------------|
|----------------------------------------------------|
|--------------------------------7-8-7------7-8-7-10-|
|-777777----------666666-----------------------------|
|--------------------------------5-6-5------5-6-5-8--|




Riff 3 Guitar 1
|------------------------------------------------------------|
|------------------------------------------------------------|
|------------------------------------------------------------|
|-2----6--9--8--5--8-7--6----5--6----6--3----6--9--8--5--8-7-|
|------------------------------------------------------------|
|-0----4--7--6--3--6-5--4----3--4----4--1----4--7--6--3--6-5-|
|
|
|
|Guitar 2
|-----------------------------------------------------------|
|-----------------------------------------------------------|
|-----------------------------------------------------------|
|-2----6--------5-----4-3----2--3----3-2-----6--------5---4-|
|-----------------------------------------------------------|
|-0----4--------3-----2-1----0--1----1-0-----4--------3---2-|



|Then only guitar 2:
|-----------------------------|
|-----------------------------|
|-----------------------------|
|-----------------------------|
|-----------------------------|
|-1-0000-1-0000-4-0000-3-0000-|


Riff 4
|---------------------------------------------------------------|
|---------------------------------------------------------------|
|---------------------------------------------------------------|
|---------------------------------------------------------------|
|-5-------5-------8-------7-------4-------4-------4------5------|
|---1-1-2---1-1-2---1-1-2---1-1-2---1-1-2---1-1-2---0011---0011-|
  . . . . . . . . . . . . . . . . . . . . . . . . . .... . ...

Riff 5 (2x)
|--|------------------------------------------------------------------|
|--|------------------------------------------------------------------|
|--|------------------------------------------------------------------|
|-6|-----6/9-----6/8-----6/10-----6/9-----6/8-----6/9---6--9-8-10-11--|
|--|------------------------------------------------------------------|
|-4|-1-2-4/7-1-2-4/6-1-2-4/8--1-2-4/7-1-2-4/6-1-2-4/7---4--7-6-8--9---|
     . .     . .     . .      . .     . .     . .   


Then: guitar 1
|------------------------------------------------------------------|
|------------------------------------------------------------------|
|------------------------------------------------------------------|
|-----6/9-----6/8-----6/10-----6/9-----6/8-----6/9---6--9-8-10-11--|
|------------------------------------------------------------------|
|-1-2-4/7-1-2-4/6-1-2-4/8--1-2-4/7-1-2-4/6-1-2-4/7---4--7-6-8--9---|
| . .     . .     . .      . .     . .     . .   
|
|
|
|Guitar 2
|--------------------------------------------------------------------|
|--------------------------------------------------------------------|
|--------------------------------------------------------------------|
|-----8/11----8/10----8/12-----8/11----8/10----8/11--8--11-10-12-13--|
|--------------------------------------------------------------------|
|-1-2-6/9-1-2-6/8-1-2-6/10-1-2-6/9-1-2-6/8-1-2-6/9---6--9--8--10-11--|
  . .     . .     . .      . .     . .     . .   


Guitar 1
|----------------------------------------------------------|
|----------------------------------------------------------|
|----------------------------------------------------------|
|-----6/9-----6/8-----6/10-----6/9-----6/8-----6/9---11-10-|
|----------------------------------------------------------|
|-1-2-4/7-1-2-4/6-1-2-4/8--1-2-4/7-1-2-4/6-1-2-4/7---9--8--|
| . .     . .     . .      . .     . .     . .   
|
|
|
|Guitar 2
|----------------------------------------------------------|
|----------------------------------------------------------|
|----------------------------------------------------------|
|-----8/11----8/10----8/12-----8/11----8/10----8/11--13-12-|
|----------------------------------------------------------|
|-1-2-6/9-1-2-6/8-1-2-6/10-1-2-6/9-1-2-6/8-1-2-6/9---11-10-|
  . .     . .     . .      . .     . .     . .   

Riff 1
|--------------------------------------------------------------------------|
|--------------------------------------------------------------------------|
|--------------------------------------------------------------------------|
|8\7/8-9\3/8-7------8\7/8-9\3/8-6----------8\7/8-9\3/8-7-----------------~-|
|---------------------------------7-6-5-----------------------5-2--4\3/4-4-|
|6\5/6-7\1/6-5-0000-6\5/6-7\1/6-4-------00-6\5/6-7\1/6-5-0000--------------|



Ending
|-------------------------------------------------------------|
|-------------------------------------------------------------|
|-------------------------------------------------------------|
|8\7/8-9\3/8-7------8\7/8-9\3/8-6----------8\7/8-9\3/8-7------|
|---------------------------------7-6-5-----------------------|
|6\5/6-7\1/6-5-0000-6\5/6-7\1/6-4-------00-6\5/6-7\1/6-5-0000-|

|------------------------------------|
|------------------------------------|
|------------------------------------|
|------------------------------------|
|6--3--5--2--5-----4-----3-----------|
|--------------3-4---2-3---1-2-4-2-1-|
               . . . . . . . . . . .

End.





Comments


Popular Hate Eternal tabs & chords
Behold Judas Tabs
Beyond Redemption Tabs
Faceless One Tabs
In Spirit (The Power Of Mana) Tabs
Nailed To Obscurity 1 Tabs
Path To The Eternal Gods 1 Tabs
Praise Of The Almighty Tabs
The Obscure Terror Intro Tabs
Thus Salvation Tabs
Two Demons 2 Tabs


Song lyrics



↑ Back to top | Tablatures and chords are parodies/interpretations of the original songs. You may use it for private study, scholarship, research or language learning purposes only
© 2014 AZChords.com Contact us | Privacy policy | DMCA | Add/correct tabs | Request tabs | Top 50 tabs