>
 >
Spiritual Holocaust

Spiritual Holocaust Guitar Tabs

Hate Eternal - Spiritual Holocaust chords, tabs, tablatures, lyrics

Guitar lessons | Add/correct | Request | Top 50 tabs Artists:  A B C D E F G H I J K L M N O P Q R S T U V W X Y Z 0-9

Spiritual Holocaust Guitar Tabs – Hate Eternal

CD, Sheet music, Poster

Do you like Spiritual Holocaust? Share with your friends now
Tabs
Band:  Hate Eternal
Copyright (c)  Earache/Wicked World records 1999
Version 1.0 - 14-01-2005
.  - palm mute           /  - slide up to
  - slide down to       ~  - vibrato
h  - hammer on           b  - Bend
p  - pull off            Suffixes for bend
t  - tap                 f  - full bend    h - half bend
ph - pinched harmonic    q  - quarter bend t - tap bend
*  - see comment         ^  - Hold bend    r release bend
x  - Stuccatto           ~  - vibrato bend
,  - slight palm mute    () - ghost note, sustained note
"  - tremolo note        <> - Trill
Tunning C# F# B E G# C#
intro left
 A 1x                         B 2x        riff 1B 1x  2x
|----------------------------|-----------|-----------|-----------|
|----------------------------|-----------|-----------|-----------|
|----------------------------|-----------|-----------|-----------|
|--3-------------------------|-----------|-----------|-----------|
|6-1-6-4-3-4-6-4----433--433-|--433--433-|-----------|--433--433-|
|4---4-2-1-2-4-2---4211-4211-|-4211-4211-|-----------|-4211-4211-|
 .   . . . . . .


riff 1A right

|--------------------------------------|
|--------------------------------------|
|--------------------------------------|
|--------------------------------------|
|---555------222333222-------433--433--|
|444---111222---------222---4211-4211--|



riff 1 right

|--------------------------------------|-------------------------------------|
|--------------------------------------|-------------------------------------|
|--------------------------------------|-------------------------------------|
|--------------------------------------|---666------333444333----------------|
|---555------222333222-------433--433--|555---222333---------333----433------|
|444---111222---------222---4211-4211--|---------------------------4211------|



riff 1A left

|---------------------------------------|
|---------------------------------------|
|---------------------------------------|
|---------------------------------------|
|----555------222333222-------433--433--|
|444----111222---------222---4211-4211--|
 .........................


riff 1B left

|-------------------------------------------|
|-------------------------------------------|
|-------------------------------------------|
|-------------------------------------------|
|----888--------555666555--------433--433---|
|777----444555------------555---4211-4211---|
 ............................


fill left/right
|--------------------------------------------------|
|--------------------------------------------------|
|--------------------------------------------------|
|--------------------------------------------------|
|-433--433---433--433--433--433--433-33-33-33-33---|
|4211-4211--4211-4211-4211-4211-4211-11-11-11-11---|
            ..   ..   ..   ..   ..

fill left

|------|
|------|
|------|
|33----|
|11-43-|
|--421-|
   ...

riff 2 left

|--------------------------------|
|--------------------------------|
|--------------------------------|
|-------------------------33-----|
|-------------------------11-43--|
|222222222222222222222222---421--|
 ............................


fill left

|-------|-----|------|
|-------|-----|------|
|-------|-----|------|
|-------|-----|33----|
|6-3-4--|--3--|11-43-|
|4-1-2--|--1--|--421-|
 . .


riff 3 left / right

|-------------------------------------------------|
|-------------------------------------------------|
|-------------------------------------6-----------|
|-------------------------3--------/4-----33------|
|----------4-----4---3--1-----------------11-43---|
|222222222-----2---1---------1111-----------421---|
 .........     .   .    .    ....


riff 4 left / right

|------------------------------|------------------------------|
|------------------------------|------------------------------|
|------------------------------|------------------------------|
|------------------------------|------------------------------|
|------------------------------|----------------------4-6-4-3-|
|-222225-111114-222225-111114--|-222225-222224-222225-2-4-2-1-|
  .....  .....  ..... ......     .....  .....  .....  . . . .


fill left

|-----------------------|
|-----------------------|
|-----------------------|
|4-46434-46434-46764----|
|2-24212-24212-24542----|
 . ..... ..... .....


fill left

|-------------|--------------|
|-------------|--------------|
|-------------|--------------|
|------3------|------5-------|
|6-3-4-1-4-3--|7-4-6-3-7-6---|
|4-1-2---2-1--|5-2-4---5-4---|
 . . . . . .   . .... . .


riff 5 left / right solo backing

|------------------------------------|----------------|
|------------------------------------|----------------|
|------------------------------------|----------------|
|------------------------------------|-------3--------|
|4-3-3-3-3-3-4-3-3-3-3-3-4-3-3-3-3-3-|-6-3-4-1-4-3----|
|2-1-1-1-1-1-2-1-1-1-1-1-2-1-1-1-1-1-|-4-1-2---2-1----|
   . . . . .   . . . . .   . . . . .   . . . . . .

|------------------------|----------------------------|
|------------------------|----------------------------|
|------------------------|----------------------------|
|------------------------|-------3-----------5--------|
|4-3-3-3-3-3-4-3-3-3-3-3-|-6-3-4-1-4-3--7-4-6-3-7-6---|
|2-1-1-1-1-1-2-1-1-1-1-1-|-4-1-2---2-1--5-2-4---5-4---|



solo 1

|----------------------------------------------------------|
|----------------------------------------------------------|
|----------------------------------------------------------|
|----------------------------------------------------------|
|----------------------------------------------------------|
|----------------------------------------------------------|


solo 2  listen to the song to get the timing right

|-----11-12-11--11---------------------------------------------------------|
|12-13--------13---13-12-13-12-10-9--12h13p12p10h12-9-10-9-----------------|
|-------------------------------------------------------------9-10-7-9~~---|
|--------------------------------------------------------------------------|
|--------------------------------------------------------------------------|
|--------------------------------------------------------------------------|


|------11-12-11---11--------------11-12-14-14~--12-14-14-18-14~~----|
|12-13----------13--13-12-10-12-13----------------------------------|
|-------------------------------------------------------------------|
|-------------------------------------------------------------------|
|-------------------------------------------------------------------|
|-------------------------------------------------------------------|


|14h15h18-19~--15-14-12-11-12-14-14-14~~-12-11~------------|
|----------------------------------------------------------|
|----------------------------------------------------------|
|----------------------------------------------------------|
|----------------------------------------------------------|
|----------------------------------------------------------|


|12-11----11---11------------------------------------------|
|------13----13--13-12-12h13p12h13p12p10----10-12~~--------|
|----------------------------------------13----------------|
|----------------------------------------------------------|
|----------------------------------------------------------|
|----------------------------------------------------------|
this solo is correct so if u try playing it and it sound wrong
then ur doing something wrong cus this is right 100%!!!!


fill

|----------------------------------------|
|----------------------------------------|
|----------------------------------------|
|----------------------------------------|
|----------------------------------------|
|----------------------------------------|


riff 6 left / right

|------------------------|----------------------|
|------------------------|----------------------|
|------------------------|-4---4-5-4-3---3-4-3--|
|-----------55-44-55-88--|----------------------|
|111-4-3-6-4-------------|--222-------111-------|
|----2-1-4-2-------------|----------------------|


riff 7 left / right

|-----------------------------------|----------------------------------|
|-----------------------------------|----------------------------------|
|-----------------------------------|----------------------------------|
|3--------3-------3-----------4p3-1-|3-------3----------4p3-1----5~~---|
|--------------------------3~~------|----------------3~~-----5~~-------|
|-111412---111412---111412----------|-111142--111142-------------------|


|------------------------------------|---------------------------------------|
|------------------------------------|---------------------------------------|
|------------------------------------|------------------4---4-5-4--3---3-4-3-|
|3--------3--------3----------4p3-1--|3--------3-----------------------------|
|--------------------------3~~-------|-------------------222--------111------|
|-111412---111412---111412-----------|-111412---111412-----------------------|

not shure if the last 2 riffs are 100% corect





Comments


Popular Hate Eternal tabs & chords
Darkness By Oath Tabs
Dethroned Tabs
Dogma Condemned 1 Tabs
Imonarch Tabs
Para Bellum Tabs
Path To The Eternal Gods 1 Tabs
Rising Legions Of Black Intro Tabs
Sons Of Darkness Tabs
The Art Of Redemption Intro Tabs
The Fire Of Resurrection 1 Tabs


Song lyrics



↑ Back to top | Tablatures and chords are parodies/interpretations of the original songs. You may use it for private study, scholarship, research or language learning purposes only
© 2014 AZChords.com Contact us | Privacy policy | DMCA | Add/correct tabs | Request tabs | Top 50 tabs