>
 >
Sons Of Darkness

Sons Of Darkness Guitar Tabs

Hate Eternal - Sons Of Darkness chords, tabs, tablatures, lyrics

Guitar lessons | Add/correct | Request | Top 50 tabs Artists:  A B C D E F G H I J K L M N O P Q R S T U V W X Y Z 0-9

Sons Of Darkness Guitar Tabs – Hate Eternal

CD, Sheet music, Poster

Do you like Sons Of Darkness? Share with your friends now
Tabs
Band:  Hate eternal

Copyright (c)  Earache records 2005
Version 1.2 March 2006


.  - palm mute           /  - slide up to
\  - slide down to       ~  - vibrato
h  - hammer on           b  - Bend
p  - pull off            Suffixes for bend
t  - tap                 f  - full bend    h - half bend
ph - pinched harmonic    q  - quarter bend t - tap bend
*  - see comment         ^  - Hold bend    r release bend
x  - Stuccatto           ~  - vibrato bend
,  - slight palm mute    () - ghost note, sustained note
"  - tremolo note        <> - Trill

Tune to c#

Riff 1 
|--------------------------------------------------------------|
|--------------------------------------------------------------|
|--------------------------------------------------------------|
|-3--5/7--3--5/7--3--5/7-7"6"--3--5/7--3--5/7--3--5/7-7"6"7"8"-|
|-2--4/6--2--4/6--2--4/6-------2--4/6--2--4/6--2--4/6----------|
|-1--3/5--1--3/5--1--3/5-------1--3/5--1--3/5--1--3/5----------|
  .       .       .            .       .       .  

|-----------------------------------------------------------------------|
|-----------------------------------------------------------------------|
|-----------------------------------------------------------------------|
|-3--5/7--3--5/7--3--5/7-7"6"--3--5/7--3--5/7--3--5/7-7"6"7"8"----------|
|-2--4/6--2--4/6--2--4/6-------2--4/6--2--4/6--2--4/6-------------------|
|-1--3/5--1--3/5--1--3/5-------1--3/5--1--3/5--1--3/5----------8"7"8"9"-|
  .       .       .            .       .       .

Riff 2 Guitar 1
|--------------------------------------------------------------|
|--------------------------------------------------------------|
|--------------------------------------------------------------|
|-3--5/7--3--5/7--3--5/7-7"6"--3--5/7--3--5/7--3--5/7-7"6"7"8"-|
|-2--4/6--2--4/6--2--4/6-------2--4/6--2--4/6--2--4/6----------|
|-1--3/5--1--3/5--1--3/5-------1--3/5--1--3/5--1--3/5----------|
| .       .       .            .       .       .  
|
|
|Guitar 2
|--------------------------------------------------------------|
|--------------------------------------------------------------|
|--------------------------------------------------------------|
|-3--5/7--3--5/7--3--5/7-------3--5/7--3--5/7--3--5/7----------|
|-2--4/6--2--4/6--2--4/6-------2--4/6--2--4/6--2--4/6----------|
|-1--3/5--1--3/5--1--3/5-7"6"--1--3/5--1--3/5--1--3/5-7"6"7"8"-|
  .       .       .            .       .       .


Guitar 1
|-----------------------------------------------------------------------|
|-----------------------------------------------------------------------|
|-----------------------------------------------------------------------|
|-3--5/7--3--5/7--3--5/7-7"6"--3--5/7--3--5/7--3--5/7-7"6"7"8"----------|
|-2--4/6--2--4/6--2--4/6-------2--4/6--2--4/6--2--4/6-------------------|
|-1--3/5--1--3/5--1--3/5-------1--3/5--1--3/5--1--3/5----------8"7"8"9"-|
| .       .       .            .       .       .
|
|
|
|Guitar 2
|-----------------------------------------------------------------------|
|-----------------------------------------------------------------------|
|-----------------------------------------------------------------------|
|-3--5/7--3--5/7--3--5/7-------3--5/7--3--5/7--3--5/7-------------------|
|-2--4/6--2--4/6--2--4/6-------2--4/6--2--4/6--2--4/6-------------------|
|-1--3/5--1--3/5--1--3/5-7"6"--1--3/5--1--3/5--1--3/5-7"6"7"8"-8"7"8"9"-|
  .       .       .            .       .       .



Riff 3a
|--------------------------------|
|--------------------------------|
|--------------------------------|
|-3--5/7--4--6/8--5--7/9--6--8/10|
|-2--4/6--3--5/7--4--6/8--5--7/9-|
|-1--3/5--2--4/6--3--5/7--4--6/8-|
  .       .       .       .

After playing this two times, guitar 2 harmonizes like this

|---------------------------------|
|---------------------------------|
|---------------------------------|
|5--7/9--6--8/10-7--9/11--8--10/11|
|4--6/8--5--7/9--6--8/10--7--9/11-|
|3--5/7--4--6/8--5--7/9---6--8/10-|
 .       .       .        .



Riff 2 Guitar 1
|--------------------------------------------------------------|
|--------------------------------------------------------------|
|--------------------------------------------------------------|
|-3--5/7--3--5/7--3--5/7-7"6"--3--5/7--3--5/7--3--5/7-7"6"7"8"-|
|-2--4/6--2--4/6--2--4/6-------2--4/6--2--4/6--2--4/6----------|
|-1--3/5--1--3/5--1--3/5-------1--3/5--1--3/5--1--3/5----------|
| .       .       .            .       .       .  
|
|
|Guitar 2
|--------------------------------------------------------------|
|--------------------------------------------------------------|
|--------------------------------------------------------------|
|-3--5/7--3--5/7--3--5/7-------3--5/7--3--5/7--3--5/7----------|
|-2--4/6--2--4/6--2--4/6-------2--4/6--2--4/6--2--4/6----------|
|-1--3/5--1--3/5--1--3/5-7"6"--1--3/5--1--3/5--1--3/5-7"6"7"8"-|
  .       .       .            .       .       .


Guitar 1
|-----------------------------------------------------------------------|
|-----------------------------------------------------------------------|
|-----------------------------------------------------------------------|
|-3--5/7--3--5/7--3--5/7-7"6"--3--5/7--3--5/7--3--5/7-7"6"7"8"----------|
|-2--4/6--2--4/6--2--4/6-------2--4/6--2--4/6--2--4/6-------------------|
|-1--3/5--1--3/5--1--3/5-------1--3/5--1--3/5--1--3/5----------8"7"8"9"-|
| .       .       .            .       .       .
|
|
|
|Guitar 2
|-----------------------------------------------------------------------|
|-----------------------------------------------------------------------|
|-----------------------------------------------------------------------|
|-3--5/7--3--5/7--3--5/7-------3--5/7--3--5/7--3--5/7-------------------|
|-2--4/6--2--4/6--2--4/6-------2--4/6--2--4/6--2--4/6-------------------|
|-1--3/5--1--3/5--1--3/5-7"6"--1--3/5--1--3/5--1--3/5-7"6"7"8"-8"7"8"9"-|
  .       .       .            .       .       .



Riff 3b
|--------------------------------|
|--------------------------------|
|--------------------------------|
|-3--5/7--4--6/8--5--7/9--6--8/10|
|-2--4/6--3--5/7--4--6/8--5--7/9-|
|-1--3/5--2--4/6--3--5/7--4--6/8-|
  .       .       .       .

After playing this two times, guitar 2 harmonizes like this

|---------------------------------|
|---------------------------------|
|---------------------------------|
|5--7/9--6--8/10-7--9/11--8--10/11|
|4--6/8--5--7/9--6--8/10--7--9/11-|
|3--5/7--4--6/8--5--7/9---6--8/10-|
 .       .       .        .

Fourth time:
Guitar 1
|--------------------------------------------------------|
|--------------------------------------------------------|
|--------------------------------------------------------|
|-3--5/7--4--6/8--5--7/9--6--1111111111111111--10---7-7--|
|-2--4/6--3--5/7--4--6/8--5--1010101010101010--9----6-6--|
|-1--3/5--2--4/6--3--5/7--4--9-9-9-9-9-9-9-9---8----5-5--|
| .       .       .       .
|
|
|
|Guitar 2
|---------------------------------------------------------|
|---------------------------------------------------------|
|5--7/9--6--8/10-7--9/11--8--1111111111111111--10----7-7--|
|4--6/8--5--7/9--6--8/10--7--1010101010101010--9-----6-6--|
|3--5/7--4--6/8--5--7/9---6--9-9-9-9-9-9-9-9---8-----5-5--|
 .       .       .        .



Pre verse while those tibetian drums are playing
Guitar 1
|---------------------------------------------------------------|
|---------------------------------------------------------------|
|---------------------------------------------------------------|
|-2-------------------------------------------------------------|
|-2-------------------------------------------------------------|
|-0-------------------------------------------------------------|
|
|
|Guitar 2
|---------------------------------------------------------------|
|---------------------------------------------------------------|
|---------------------------------------------------------------|
|----9-9-9-9-9-9-9-9-9--13-13-13-13--101010101010-/5-5-5-/8-8-8-|
|---------------------------------------------------------------|
|----7-7-7-7-7-7-7-7-7--11-11-11-11--8-8-8-8-8-8--/3-3-3-/6-6-6-|

Guitar 1
|-------------------------------------------------------------|
|-------------------------------------------------------------|
|-------------------------------------------------------------|
|-2-----------------------------------------------------------|
|-2-(still fades from last bar)--------------4-------4--------|
|-0--------------------------------------------2-1-2----2-1-2-|
|                                              . . .    . . .
|
|Guitar 2
|-------------------------------------------------------------|
|-------------------------------------------------------------|
|-------------------------------------------------------------|
|-9-9-9-9-9-9-9-9-9-13-13-13-13-101010101010------------------|
|--------------------------------------------4-------4--------|
|-7-7-7-7-7-7-7-7-7-11-11-11-11-8-8-8-8-8-8----2-1-2----2-1-2-|
                                               . . .    . . .

Riff 4 Verse
|------------------------------------------------------------|
|------------------------------------------------------------|
|------------------------------------------------------------|
|-9-9-9-9-9-9-9-9-9--13-13-13-13--101010101010-/5-5-5-/8-8-8-|
|------------------------------------------------------------|
|-7-7-7-7-7-7-7-7-7--11-11-11-11--8-8-8-8-8-8--/3-3-3-/6-6-6-|


|-------------------------------------------------------------|
|-------------------------------------------------------------|
|-------------------------------------------------------------|
|-9-9-9-9-9-9-9-9-9-13-13-13-13-101010101010------------------|
|--------------------------------------------4-------4--------|
|-7-7-7-7-7-7-7-7-7-11-11-11-11-8-8-8-8-8-8----2-1-2----2-1-2-|
                                               . . .    . . .

Riff 5 Chorus
|-------------------------------------------------------------------|
|-------------------------------------------------------------------|
|------------------------------------------------------1010-9-1111--|
|-----------------------4-----3------------------------9-9--8-1010--|
|-4-------5-------3-----3-----2-----4-------5--------3/8-8--7/9-9---|
|---2-1-2---2-1-2---0-0-2-0-0-1-1-2---2-1-2---2-1-2-----------------|
    . . .   . . .   . .   . .   . .   . . .   . . .


|------------------------------------------------------------------|
|------------------------------------------------------------------|
|------------------------------------------------------1010-9-1111-|
|-----------------------4------------------------------9-9--8-1010-|
|-4-------5-------3-----3---------3-4-------5--------3/8-8--7/9-9--|
|---2-1-2---2-1-2---0-0-2-0-1-2-1-----2-1-2---2-1-2----------------|
    . . .   . . .   . .   . . . .     . . .   . . .

Riff 6
|----------------------------------------------------------------|
|----------------------------------------------------------------|
|----------------------------------------------------------------|
|---------------------6-6-6-5------------------------6-6-9-5-5-8-|
|-6---------6-----------------6-7-6---------6--------------------|
|---3-2-1-2---3-2-1-2---------------3-2-1-2---3-2-1-2------------|
    . . . .   . . . .               . . . .   . . . . 

|----------------------------------------------------------------|
|----------------------------------------------------------------|
|-----------------------------------------------------5-5-4-7--8-|
|---------------------6-6-6-5------------------------------------|
|-6---------6-----------------6-7-6---------6---------3-3-2-5--6-|
|---3-2-1-2---3-2-1-2---------------3-2-1-2---3-2-1-2------------|
    . . . .   . . . .               . . . .   . . . . 

Guitar 1
|-------------------------------------------------------------|
|-----------------------------------------------.-------------|
|-------------------------------------------------------------|
|---------------------6-6-6-5------------------------6-6-9-5~-|
|-6---------6-----------------6-7-6---------6-----------------|
|---3-2-1-2---3-2-1-2---------------3-2-1-2---3-2-1-2---------|
|   . . . .   . . . .               . . . .   . . . . 
|
|
|
|
|Guitar 2
|--------------------------------------------------------------|
|-----------------------------------------------.--------------|
|--------------------------------------------------------------|
|---------------------6-6-6-5------------------------6-6-9-10~-|
|-6---------6-----------------6-7-6---------6------------------|
|---3-2-1-2---3-2-1-2---------------3-2-1-2---3-2-1-2----------|
    . . . .   . . . .               . . . .   . . . . 


|----------------------------------------------------------------|
|----------------------------------------------------------------|
|-----------------------------------------------------5-5-4-7--8-|
|---------------------6-6-6-5------------------------------------|
|-6---------6-----------------6-7-6---------6---------3-3-2-5--6-|
|---3-2-1-2---3-2-1-2---------------3-2-1-2---3-2-1-2------------|
    . . . .   . . . .               . . . .   . . . . 


Riff 4 Verse
|------------------------------------------------------------|
|------------------------------------------------------------|
|------------------------------------------------------------|
|-9-9-9-9-9-9-9-9-9--13-13-13-13--101010101010-/5-5-5-/8-8-8-|
|------------------------------------------------------------|
|-7-7-7-7-7-7-7-7-7--11-11-11-11--8-8-8-8-8-8--/3-3-3-/6-6-6-|


|-------------------------------------------------------------|
|-------------------------------------------------------------|
|-------------------------------------------------------------|
|-9-9-9-9-9-9-9-9-9-13-13-13-13-101010101010------------------|
|--------------------------------------------4-------4--------|
|-7-7-7-7-7-7-7-7-7-11-11-11-11-8-8-8-8-8-8----2-1-2----2-1-2-|
                                               . . .    . . .


Riff 5 Chorus
|-------------------------------------------------------------------|
|-------------------------------------------------------------------|
|------------------------------------------------------1010-9-1111--|
|-----------------------4-----3------------------------9-9--8-1010--|
|-4-------5-------3-----3-----2-----4-------5--------3/8-8--7/9-9---|
|---2-1-2---2-1-2---0-0-2-0-0-1-1-2---2-1-2---2-1-2-----------------|
    . . .   . . .   . .   . .   . .   . . .   . . .


|------------------------------------------------------------------|
|------------------------------------------------------------------|
|------------------------------------------------------1010-9-1111-|
|-----------------------4------------------------------9-9--8-1010-|
|-4-------5-------3-----3---------3-4-------5--------3/8-8--7/9-9--|
|---2-1-2---2-1-2---0-0-2-0-1-2-1-----2-1-2---2-1-2----------------|
    . . .   . . .   . .   . . . .     . . .   . . .


Fill
|-------------------|
|-------------------|
|-------------------|
|-3-5--3-5--3-5--3-5|
|-2-4--2-4--2-4--2-4|
|-1-3--1-3--1-3--1-3|
  . .  . .  . .  . .

Riff 3c
|--------------------------------|
|--------------------------------|
|--------------------------------|
|-3--5/7--4--6/8--5--7/9--6--8/10|
|-2--4/6--3--5/7--4--6/8--5--7/9-|
|-1--3/5--2--4/6--3--5/7--4--6/8-|
  .       .       .       .  


Riff 1 
|--------------------------------------------------------------|
|--------------------------------------------------------------|
|--------------------------------------------------------------|
|-3--5/7--3--5/7--3--5/7-7"6"--3--5/7--3--5/7--3--5/7-7"6"7"8"-|
|-2--4/6--2--4/6--2--4/6-------2--4/6--2--4/6--2--4/6----------|
|-1--3/5--1--3/5--1--3/5-------1--3/5--1--3/5--1--3/5----------|
  .       .       .            .       .       .  

|-----------------------------------------------------------------------|
|-----------------------------------------------------------------------|
|-----------------------------------------------------------------------|
|-3--5/7--3--5/7--3--5/7-7"6"--3--5/7--3--5/7--3--5/7-7"6"7"8"----------|
|-2--4/6--2--4/6--2--4/6-------2--4/6--2--4/6--2--4/6-------------------|
|-1--3/5--1--3/5--1--3/5-------1--3/5--1--3/5--1--3/5----------8"7"8"9"-|

Riff 2 Guitar 1
|--------------------------------------------------------------|
|--------------------------------------------------------------|
|--------------------------------------------------------------|
|-3--5/7--3--5/7--3--5/7-7"6"--3--5/7--3--5/7--3--5/7-7"6"7"8"-|
|-2--4/6--2--4/6--2--4/6-------2--4/6--2--4/6--2--4/6----------|
|-1--3/5--1--3/5--1--3/5-------1--3/5--1--3/5--1--3/5----------|
| .       .       .            .       .       .  
|
|
|Guitar 2
|--------------------------------------------------------------|
|--------------------------------------------------------------|
|--------------------------------------------------------------|
|-3--5/7--3--5/7--3--5/7-------3--5/7--3--5/7--3--5/7----------|
|-2--4/6--2--4/6--2--4/6-------2--4/6--2--4/6--2--4/6----------|
|-1--3/5--1--3/5--1--3/5-7"6"--1--3/5--1--3/5--1--3/5-7"6"7"8"-|
  .       .       .            .       .       .


Guitar 1
|-----------------------------------------------------------------------|
|-----------------------------------------------------------------------|
|-----------------------------------------------------------------------|
|-3--5/7--3--5/7--3--5/7-7"6"--3--5/7--3--5/7--3--5/7-7"6"7"8"----------|
|-2--4/6--2--4/6--2--4/6-------2--4/6--2--4/6--2--4/6-------------------|
|-1--3/5--1--3/5--1--3/5-------1--3/5--1--3/5--1--3/5----------8"7"8"9"-|
| .       .       .            .       .       .
|
|
|
|Guitar 2
|-----------------------------------------------------------------------|
|-----------------------------------------------------------------------|
|-----------------------------------------------------------------------|
|-3--5/7--3--5/7--3--5/7-------3--5/7--3--5/7--3--5/7-------------------|
|-2--4/6--2--4/6--2--4/6-------2--4/6--2--4/6--2--4/6-------------------|
|-1--3/5--1--3/5--1--3/5-7"6"--1--3/5--1--3/5--1--3/5-7"6"7"8"-8"7"8"9"-|
  .       .       .            .       .       .


Ending
|-------------|
|-------------|
|-------------|
|-3-5-7--3-5-7|
|-2-4-6--2-4-6|
|-1-3/5--1-3/5|
  .      .
End of song. 





Comments


Popular Hate Eternal tabs & chords
Chants In Declaration Tabs
In Spirit The Power Of Mana Intro Tabs
King Of All Kings 1 Tabs
King Of All Kings 2 Tabs
Lake Ablaze Tabs
Path To The Eternal Gods Tabs
The Fire Of Resurrection Tabs
The Fire Of Resurrection 1 Tabs
The Obscure Terror Tabs
The Obscure Terror Intro Tabs


Song lyrics



↑ Back to top | Tablatures and chords are parodies/interpretations of the original songs. You may use it for private study, scholarship, research or language learning purposes only
© 2014 AZChords.com Contact us | Privacy policy | DMCA | Add/correct tabs | Request tabs | Top 50 tabs