» » »

Hate Eternal, Servants Of The Gods Tabs (ver.1)

Artists:  A B C D E F G H I J K L M N O P Q R S T U V W X Y Z # 

Servants Of The Gods Tabs (ver.1)

Hate Eternal Tabs
Rating:
0/5 (0 votes)
Servants Of The Gods lessons Tabs too difficult? Try these video lessons and learn fast
                Band:  Hate eternal
Copyright (c)  Earache/Wicked World records 2002
Version 1.0 - 02-12-11



.  - palm mute           /  - slide up to
  - slide down to       ~  - vibrato
h  - hammer on           b  - Bend
p  - pull off            Suffixes for bend
t  - tap                 f  - full bend    h - half bend
ph - pinched harmonic    q  - quarter bend t - tap bend
^  - Hold bend           r  - release bend
x  - Stuccatto           ~  - vibrato bend
,  - slight palm mute    () - ghost note, sustained note
*  - tremolo note        <> - Trill


!!!this tab is at least 99% correct!!!!



tuning C# F# B E G# C#


Riff 1 left
-----------------------------------------------------------------------------|
-----------------------------------------------------------------------------|
-------------66----------------------------------66-----------------------77-|
----44-----77--77-----33--33--33-44-----44-----77--77-99-77-66-77-99-77-99---|
--55--55-44---------44--44--44--------55--55-44------------------------------|
22----------------11----------------22---------------------------------------|


-----------------------------------------------------------------------------|
-----------------------------------------------------------------------------|
-------------66----------------------------------66--------------------------|
----44-----77--77-----33--33--33-44-----44-----77--77-99-77-66-44-33---------|
--55--55-44---------44--44--44--------55--55-44---------------------55-44-33-|
22----------------11----------------22---------------------------------------|


Riff 1 right
---------------------------------------------------------------------------|
---------------------------------------------------------------------------|
---------------------------------------------------------------------------|
----------------------------------------------------------------------22---|
--4--------------------4--2--5--4----4-----------------------44--33-44--44-|
22-11-22-44-55-44-22-11-11-11-11---22-11-22-44-55-44-22-44-55--44----------|

-----------------------------------------------------------------------------|
-----------------------------------------------------------------------------|
-----------------------------------------------------------------------------|
------------------------------------------------------------------------22---|
--4--------------------4--2--5--4----4--------------------33-44-00-33-44--44-|
22-11-22-44-55-44-22-11-11-11-11---22-11-22-44-55-44-22-11-------------------|


Riff 2 left
--------------------------------------------------------------------------------|
--------------------------------------------------------------------------------|
--------------------------------------------------------------------------------|
4----4----4----4----4----4----4----4----4----4----4----4----3----3----3----3----|
--------------------------------------------------------------------------------|
--22---22---22---22---22---22---22---22---22---22---22---22---11---11---11---11-|

---------------------------------------------------------------------------------|
---------------------------------------------------------------------------------|
---------------------------------------------------------------------------------|
----4----4----4----4----4----4----4----4----3----3----3----3----2----2----6--7---|
---------------------------------------------------------------------------------|
--22---22---22---22---22---22---22---22---11---11---11---11---00---00---44---55--|


Riff 2 right
---------------------------------------------------------------------------|
---------------------------------------------------------------------------|
---------------------------------------------------------------------------|
3----4----7--------3--------2--------3----4----7--------3--------2----6----|
---------------------------------------------------------------------------|
1----2----5--------1--------0--------1----2----5--------1--------0----4----|


Riff 3 left
-------------------------------------------------------|
-------------------------------------------------------|
-------------------------------------------------------|
-------------------------------------------------------|
-------------------------------------------------------|
222-222-222-222-111-222-/6--222-222-222-222-111-222-/6-|

--------------------------------------------------|
--------------------------------------------------|
--------------------------------------------------|
--------------------------------------------------|
--------------------------------------------------|
111-111-111-111-5-1-/5--111-111-111-111-5-1-5-1h5-|



Riff 3 right
-------------------------------------------------------|
-------------------------------------------------------|
-------------------------------------------------------|
-------------------------------------------------------|
------------------------/4--------------------------/6-|
222-222-222-222-111-222-----222-222-222-222-111-222----|

--------------------------------------------------|
--------------------------------------------------|
--------------------------------------------------|
--------------------------------------------------|
--------------------/5----------------------3-0h3-|
111-111-111-111-5-1-----111-111-111-111-5-1-------|



Riff 4 left
------------------------------------------------------------------------|
------------------------------------------------------------------------|
------------------------------------------------------------------------|
------------------------------------------------------------------------|
------4--------4--------3--------3--------7--------7--------6--------6--|
2-1-3----2-1-3----1-0-2----1-0-2----5-4-6----5-4-6----4-3-5----4-3-5----|


Riff 4 right

---------------------------------------------------------------------------------|
---------------------------------------------------------------------------------|
---------------------------------------------------------------------------------|
---------------------------------------------------------------------------------|
---------------------------------------------------------------------------------|
2-1-3-2---2-1-3-2---1-0-2-1---1-0-2-1---2-1-3-2---2-1-3-2----1-0-2-1---1-0-2-1---|


Riff 5 left
------------------------------|
------------------------------|
------------------------------|
------------------------------|
--1-----0----1---0------------|
2---1-1----2---1---/5-4-3-2---|


Riff 5 right
------------------------------|
------------------------------|
------------------------------|
------------------------------|
1---0-0----1---0--------------|
--2-----1----2---1-/8-7-6-5---|


Riff 6 left
2x                          2x
---------------------------|-----------------------------|
---------------------------|-----------------------------|
---------------------------|-----------------------------|
---------------------------|-----------------------------|
---------------------------|-----------------------------|
2-2-5-4-3--2-2-4-5-2-2-4-5-|--1-1-4-3-2--1-1-3-4-1-1-3-4-|

2x                          2x                            end
---------------------------|-----------------------------|---------------------|
---------------------------|-----------------------------|---------------------|
---------------------------|-----------------------------|---------------------|
---------------------------|-----------------------------|---------------------|
---------------------------|-----------------------------|---------------------|
2-2-5-4-3--2-2-4-5-2-2-4-5-|--1-1-4-3-2--1-1-3-4-1-1-3-4-|1-1-4-3-2--1-1-3-4-1-|




Riff 6 right
2x
---------------------------|-----------------------------|
---------------------------|-----------------------------|
---------------------------|-----------------------------|
---------------------------|-----------------------------|
---------------------------|-----------------------------|
2-2-5-4-3--2-2-4-5-2-2-4-5-|--1-1-4-3-2--1-1-3-4-1-1-3-4-|

2x                          2x
---------------------------|-----------------------------|----------------------|
---------------------------|-----------------------------|----------------------|
---------------------------|-----------------------------|----------------------|
---------------------------|-----------------------------|----------------------|
---------------------------|-----------------------------|----------------------|
5-5-8-7-6--5-5-7-8-5-5-7-8-|--5-5-8-7-6--5-5-7-8-5-5-7-8-|4-4-7-6-5--4-4-6-7-4--|


solo 1 riff 4

this solo is f**ked hard to hear so i just tabbed whatever i think is close
----------------------------------------------------------------------------|
----------------------------------------------------------------------------|
---------------------------16------18~~-----------------------------16------|
16-15--------------15-16-18--18-15------16--15--------------15-16-18--18-15-|16~~
-----17-16-14-16-17---------------------------17-16-14-16-17----------------|
----------------------------------------------------------------------------|

-----------------------------------------------------------------------------|
-----------------------------------------------------------------------------|
----------------------------16-----------------16-18-19-18-16----------------|
16--15--------------15-16-18--18-16-15-16-18-19--------------19-18-16-18-19--|
------17-16-14-16-17---------------------------------------------------------|
-----------------------------------------------------------------------------|

---------------------------------15--15-16-19BR-16-15-16-15-16-19BR-|
--------16-19B-16-19--16-19-16-19--19-------------------------------|
16-18-19------------------------------------------------------------|
--------------------------------------------------------------------|
--------------------------------------------------------------------|
--------------------------------------------------------------------|

16-15-16-19-20-22BR-|
--------------------|
--------------------|
--------------------|
--------------------|
--------------------|


solo 2        solo backing riff 1
                                   BHR : bend, hold, release
------------17-17----------------------------------------------------|
19-17-15-14----------------------------------------------------------|
------------------16-16--14-13~-11-13BHR-13B-13B-14-16-18-16-18-19---|
---------------------------------------------------------------------|
---------------------------------------------------------------------|
---------------------------------------------------------------------|

-----------------------------------------------------------------|
-----------------------------------------------------------------|
18h19p18p16h18p16--16--------------------------------------------|
-----------------19--19-18h19p18p16h18p16--16--------------------|
-----------------------------------------19--19-17-16--16-17-19--|
-----------------------------------------------------------------|

------------------------------------------------------------------------17~~-|
--------------------------------------17-19-17--------------17--------17-----|
--------16-18-16--------------16-18-19--------19-18-16-18-19--19-18-19-------|
16-18-19--------19-18-16-18-19-----------------------------------------------|
-----------------------------------------------------------------------------|
-----------------------------------------------------------------------------|

i can asure u that this solo is extremely close
it might be 1 note off but u beter live with it!!
            
Submit corrections

comments powered by Disqus
↑ Back to top | Hate Eternal Tabs for Servants Of The Gods. Lyrics for acoustic guitar and electric guitar. Tablatures and chords are parodies/interpretations of the original songs. You may use it for private study, scholarship, research or language learning purposes only