» » »

Hate Eternal, Sacrilege Of Hate Tabs (ver.1)

Artists:  A B C D E F G H I J K L M N O P Q R S T U V W X Y Z # 

Sacrilege Of Hate Tabs (ver.1)

Hate Eternal Tabs
Rating:
0/5 (0 votes)
Sacrilege Of Hate lessons Tabs too difficult? Try these video lessons and learn fast
                Band:  Hate Eternal

.  - palm mute           /  - slide up to
\  - slide down to       ~  - vibrato
h  - hammer on           b  - Bend
p  - pull off            Suffixes for bend
t  - tap                 f  - full bend    h - half bend
ph - pinched harmonic    q  - quarter bend t - tap bend
*  - see comment         ^  - Hold bend    r release bend
x  - Stuccatto           ~  - vibrato bend
,  - slight palm mute    () - ghost note, sustained note
"  - tremolo note        <> - Trill

Tuning C#

Intro Guitar 1
|---------------------------------------------------------|
|---------------------------------------------------------|
|---------------------------------------------------------|
|-7-3-------------------7-3-------------------------------|
|---------------------------------------------------------|
|-5-1-------------------5-1-------------------------------|
|
|
|
|Guitar 2
|---------------------------------------------------------|
|---------------------------------------------------------|
|---------------------------------------------------------|
|-7-3-------------------44---7-3---------5555-445544-3344-|
|------------333----3333--33------------------------------|
|-5-1--221122---2211---------5-1--221122------------------|


Guitar 1
|---------------------------------------------------------|
|---------------------------------------------------------|
|---------------------------------------------------------|
|-9-6------------------------9-6--------5-4---------------|
|---------------------------------------------------------|
|-7-4------------------------7-4--------3-2---------------|
|
|
|
|Guitar 2
|----------------------------------------------------------|
|----------------------------------------------------------|
|----------------------------------------------------------|
|-7-3-------------------44---7-3--------5555-44556666-4455-|
|------------333----3333--33-------------------------------|
|-5-1--221122---2211---------5-1--221122-------------------|


Riff 1 Guitar 1
|---------------------------------------------------------|
|---------------------------------------------------------|
|---------------------------------------------------------|
|-9-6-------------------77---9-6---------7777-667766-5566-|
|------------666----6666--66------------------------------|
|-7-4--554455---5544---------7-4--554455------------------|
|
|
|
|Guitar 2
|--------------------------------------------------------|
|--------------------------------------------------------|
|--------------------------------------------------------|
|-7-3-------------------44---7-3--------5555-445544-3344-|
|------------333----3333--33-----------------------------|
|-5-1--221122---2211---------5-1--221122-----------------|



Guitar 1
|-----------------------------------------------------------|
|-----------------------------------------------------------|
|-----------------------------------------------------------|
|-9-6-------------------77---9-6---------7777-66778888-6677-|
|------------666----6666--66--------------------------------|
|-7-4--554455---5544---------7-4--554455--------------------|
|
|
|
|Guitar 2
|-----------------------------------------------------------|
|-----------------------------------------------------------|
|-----------------------------------------------------------|
|-7-3-------------------44---7-3---------5555-4455666-4455--|
|------------333----3333--33--------------------------------|
|-5-1--221122---2211---------5-1--221122--------------------|



Riff 2 Guitar 1
|---------------------------------------------------------------------------|
|---------------------------------------------------------------------------|
|---------------------------------------------------------------------------|
|-7-3---6-5-4--3-4-3-9-5--8-710--910-9--7-3---6-5-4--3-4-3-9-5--8-7-10-9-10-|
|---------------------------------------------------------------------------|
|-5-1---4-3-2--1-2-1-7-3--6-5-8--7-8-7--5-1---4-3-2--1-2-1-7-3--6-5-8--7-8--|
|
|
|
|Guitar 2
|--------------------------------------------------------------------------|
|--------------------------------------------------------------------------|
|--------------------------------------------------------------------------|
|-7-3---6-5-4--3-4-3-7-3--6-5-8--7-8-7-7-3----6-5-4--3-4-3-7-3--6-5-8--7-8-|
|--------------------------------------------------------------------------|
|-5-1---4-3-2--1-2-1-5-1--4-3-6--5-6-5--5-1---4-3-2--1-2-1-5-1--4-3-6--5-6-|


Riff 3 Guitar 1                                              
|---------------------------------------------------------------|
|---------------------------------------------------------------|
|---------------------------------------------------------------|
|---------------------------------------------------------------|
|---66------55-6666---6666-33555---66-----55-6666--6666-3333-5/-|
|-3-----6-2---------33-----------3----6-2--------33-------------|
| . ..  . . ..                   . .. . . .. 
|
|
|Guitar 2  
|---------------------------------------------------------------|
|---------------------------------------------------------------|
|---------------------------------------------------------------|
|--------------------------888----------------------------888---|
|---66------55----66---5566---66---66-----55----66----5566---66-|
|-3-----6-2----33---33-----------3----6-2----33----33-----------|
  . ..  . . ..                   . .. . . ..  


Guitar 1                                              
|------------------------------------------------------------------|
|------------------------------------------------------------------|
|------------------------------------------------------------------|
|------------------------------------------------------------------|
|---66------55-6666---6666-33555-5555---5555-2244-5555---5555-225/-|
|-3-----6-2---------33----------------22---------------22----------|
| . ..  . . ..                   
|
|
|Guitar 2  
|------------------------------------------------------------------|
|------------------------------------------------------------------|
|------------------------------------------------------------------|
|--------------------------888---7777----------66-7777----------66-|
|---66------55----66---5566---66------555444-55--------555444-55---|
|-3-----6-2----33---33---------------------------------------------|
  . ..  . . ..                   


Riff 1 Guitar 1
|---------------------------------------------------------|
|---------------------------------------------------------|
|---------------------------------------------------------|
|-9-6-------------------77---9-6---------7777-667766-5566-|
|------------666----6666--66------------------------------|
|-7-4--554455---5544---------7-4--554455------------------|
|
|
|
|Guitar 2
|--------------------------------------------------------|
|--------------------------------------------------------|
|--------------------------------------------------------|
|-7-3-------------------44---7-3--------5555-445544-3344-|
|------------333----3333--33-----------------------------|
|-5-1--221122---2211---------5-1--221122-----------------|



Guitar 1
|-----------------------------------------------------------|
|-----------------------------------------------------------|
|-----------------------------------------------------------|
|-9-6-------------------77---9-6---------7777-66778888-6677-|
|------------666----6666--66--------------------------------|
|-7-4--554455---5544---------7-4--554455--------------------|
|
|
|
|Guitar 2
|-----------------------------------------------------------|
|-----------------------------------------------------------|
|-----------------------------------------------------------|
|-7-3-------------------44---7-3---------5555-4455666-4455--|
|------------333----3333--33--------------------------------|
|-5-1--221122---2211---------5-1--221122--------------------|



Riff 3 Guitar 1                                              
|---------------------------------------------------------------|
|---------------------------------------------------------------|
|---------------------------------------------------------------|
|---------------------------------------------------------------|
|---66------55-6666---6666-33555---66-----55-6666--6666-3333-5/-|
|-3-----6-2---------33-----------3----6-2--------33-------------|
| . ..  . . ..                   . .. . . .. 
|
|
|Guitar 2  
|---------------------------------------------------------------|
|---------------------------------------------------------------|
|---------------------------------------------------------------|
|--------------------------888----------------------------888---|
|---66------55----66---5566---66---66-----55----66----5566---66-|
|-3-----6-2----33---33-----------3----6-2----33----33-----------|
  . ..  . . ..                   . .. . . ..  


Guitar 1                                              
|------------------------------------------------------------------|
|------------------------------------------------------------------|
|------------------------------------------------------------------|
|------------------------------------------------------------------|
|---66------55-6666---6666-33555-5555---5555-2244-5555---5555-225/-|
|-3-----6-2---------33----------------22---------------22----------|
| . ..  . . ..                   
|
|
|Guitar 2  
|------------------------------------------------------------------|
|------------------------------------------------------------------|
|------------------------------------------------------------------|
|--------------------------888---7777----------66-7777----------66-|
|---66------55----66---5566---66------555444-55--------555444-55---|
|-3-----6-2----33---33---------------------------------------------|
  . ..  . . ..                   



Riff 2 Guitar 1
|---------------------------------------------------------------------------|
|---------------------------------------------------------------------------|
|---------------------------------------------------------------------------|
|-7-3---6-5-4--3-4-3-9-5--8-710--910-9--7-3---6-5-4--3-4-3-9-5--8-7-10-9-10-|
|---------------------------------------------------------------------------|
|-5-1---4-3-2--1-2-1-7-3--6-5-8--7-8-7--5-1---4-3-2--1-2-1-7-3--6-5-8--7-8--|
|
|
|
|Guitar 2
|--------------------------------------------------------------------------|
|--------------------------------------------------------------------------|
|--------------------------------------------------------------------------|
|-7-3---6-5-4--3-4-3-7-3--6-5-8--7-8-7-7-3----6-5-4--3-4-3-7-3--6-5-8--7-8-|
|--------------------------------------------------------------------------|
|-5-1---4-3-2--1-2-1-5-1--4-3-6--5-6-5--5-1---4-3-2--1-2-1-5-1--4-3-6--5-6-|



Riff 4 under solo ( hard to hear)
|-----------------------------------------------------|
|-----------------------------------------------------|
|-----------------------------------------------------|
|-7---------------------------9-----------------------|
|--------------------0000--------------------2222-----|
|-5-22222222-11112222----1122-7-44444444-3344----3344-|




Riff 5 ( same as riff 1, but both guitars play the same:
|--------------------------------------------------------|
|--------------------------------------------------------|
|--------------------------------------------------------|
|-7-3-------------------44---7-3--------5555-445544-3344-|
|------------333----3333--33-----------------------------|
|-5-1--221122---2211---------5-1--221122-----------------|



|-----------------------------------------------------------|
|-----------------------------------------------------------|
|-----------------------------------------------------------|
|-7-3-------------------44---7-3---------5555-4455666-4455--|
|------------333----3333--33--------------------------------|
|-5-1--221122---2211---------5-1--221122--------------------|


Riff 6/Ending Guitar 1
|--------------------------------------------------------|
|--------------------------------------------------------|
|--------------------------------------------------------|
|-7-3-------------------44---7-3--------5555-445544-3344-|
|------------333----3333--33-----------------------------|
|-5-1--221122---2211---------5-1--221122-----------------|
|
|
|
|
|Guitar 2
|--------------------------------------------------------|
|--------------------------------------------------------|
|--------------------------------------------------------|
|----------------------------------------88----8877-6677-|
|-88-----4-----55-----------88-----4---------------------|
|---77-3---5-4----4433-4455---77-3---5-4----55-----------|
  .... . . . . .. .... .... .... . . . . .. .. .... ....


Guitar 1
|----------------------------------------------------|
|----------------------------------------------------|
|----------------------------------------------------|
|-7-3-------------------44---7-3---------5555-4455-6-|
|------------333----3333--33-------------------------|
|-5-1--221122---2211---------5-1--221122-------------|
|                                                  .
|
|
|
|
|Guitar 2
|---------------------------------------------------|
|---------------------------------------------------|
|---------------------------------------------------|
|----------------------------------------888-7788-9-|
|-88-----4-----55-----------88-----4----------------|
|---77-3---5-4----4433-4455---77-3---5-4------------|
  .... . . . . .. .... .... .... . . . . ... .... .  


End.
            
Submit corrections

comments powered by Disqus
↑ Back to top | Hate Eternal Tabs for Sacrilege Of Hate. Lyrics for acoustic guitar and electric guitar. Tablatures and chords are parodies/interpretations of the original songs. You may use it for private study, scholarship, research or language learning purposes only