» » »

Hate Eternal, Praise Of The Almighty Tabs (ver.1)

Artists:  A B C D E F G H I J K L M N O P Q R S T U V W X Y Z # 

Praise Of The Almighty Tabs (ver.1)

Hate Eternal Tabs
 Rating:
4/5 (4 votes)
Praise Of The Almighty lessons Tabs too difficult? Try these video lessons and learn fast
                HATE ETERNAL - PRAISE OF THE ALMIGHTY
(Conquering The Throne, 1999)

Key
= after note = vibrato
^ after note = heavy vibrato
 = slide down
/ = slide up
+ = tap
h = hammer
p = pull
n = natural harmonic
s = pinching harmonic (squeal)
* = tremolo pick
t = trill
b = bend
|-3-| = triplet

n number above the tab = play the first part then the first finishing part
			 play the first part a second time and then play the second finishing part
			 etc.

Tune down 1 1/2 steps

Riff 1

C# -----------------------------------------------------------------------|
Ab -----------------------------------------------------------------------|
E  -----------------------------------------------------------------------|
B  -----------------------------------------------------------------------|
F# -------------44-3-0-------------------------------44-3-0---------------|
C# -2-55-4-66-5--------2-55-4-44-1-4-3-1-2-55-4-66-5--------2-5--4-0-4--0-|

Riff 1A

C# -----------------------------------------------------------------------|
Ab -----------------------------------------------------------------------|
E  -----------------------------------------------------------------------|
B  -----------------------------------------------------------------------|
F# -------------44-3-0-------------------------------44-3-0---4--3---3----|
C# -2-55-4-66-5--------2-55-4-44-1-4-3-1-2-55-4-66-5--------5------4----4-|

Riff 1B

C# ---------------------------------------------------------|
Ab ---------------------------------------------------------|
E  ---------------------------------------------------------|
B  ---------------------------------------------------------|
F# --------22-0-44-3-0--------------------------22-0-44-3-0-|
C# -2-55-4-------------2-55-4-44-1-4-3-1-2-55-4-------------|

Riff 2

C# -----------------------------------------------------------------------------------------------|
Ab -----------------------------------------------------------------------------------------------|
E  -----------------------------------------------------------------------------------------------|
B  -----------------------------------------------------------------------------------------------|
F# -4---------4---------3---------2---------4---------4---------3---------2-----------------------|
C# ----6---------6---------5---------4---------6---------6---------5---------4------7-73-4-7-8-8-7|

Riff 2A

C# -------------------------------------------------------------------------------|
Ab -------------------------------------------------------------------------------|
E  -------------------------------------------------------------------------------|
B  -------------------------------------------------------------------------------|
F# -------------------------------------------------------------5-52-4------------|
C# -5-xx-2-xx-5-xx-2-xx-4-xx-1-xx-4-xx-1-xx-5-xx-2-xx-5-xx-2-xx--------5-4-b5-4---|

C# ---------------------------------------------------------------------------------|
Ab ---------------------------------------------------------------------------------|
E  ---------------------------------------------------------------------------------|
B  ---------------------------------------------------------------------------------|
F# -------------------------------------------------------------5-52-4-5-/8-9-------|
C# -5-xx-2-xx-5-xx-2-xx-4-xx-1-xx-4-xx-1-xx-5-xx-2-xx-5-xx-2-xx---------------8-7---|

Riff 3

C# ---------------------------|
Ab ---------------------------|
E  ---------------------------|
B  ---------------------------|
F# ---------------------------|
C# -2-5--4-1-4---1-4--3-0-3---|

Riff 3A

C# ---------------------------|
Ab ---------------------------|
E  ---------------------------|
B  ---------------------------|
F# ---4--3---3-----3--2---2---|
C# -5------4-----4------3-----|

Riff 3B

C# -----------------------------------------|
Ab -----------------------------------------|
E  -----------------------------------------|
B  -----------------------------------------|
F# -----------------------------------------|
C# -0-555-5-0-0-444-4-0-0-444-4-0-0-333-3-0-|

Riff 4

C#-----------------------------------------------------------------------------------------------|
Ab-----------------------------------------------------------------------------------------------|
E------------------------------------------------------------------------------------------------|
B----------33-22-------------------33-22-------------------22-11-22-33-33----------22-11-22-33-33|
F#----------------33-00-------------------33-----------------------------------------------------|
C#-11-11-11-------------44-11-11-11----------44-33-00-00-00----------------00-00-00--------------|

Riff 4A

C#------------------------------------------------------------------------------------------------|
Ab------------------------------------------------------------------------------------------------|
E-------------------------------------------------------------------------------------------------|
B----------66-55-------------------66-55-------------------55-44-55-77-77----------55-44-55-77-77-|
F#-00-00-00-------77-44-33-00-00-00-------77------------------------------------------------------|
C#-------------------------------------------88-77-44-44-44----------------44-44-44---------------|

Riff 4B

C# -----------------------------------------|
Ab -----------------------------------------|
E  -----------------------------------------|
B  -----------------------------------------|
F# -----------------------------------------|
C# -4----7----6----9----3----6----4----7----|

Riff 5

C# ---------------------------------------------------------------------------------------------|
Ab ---------------------------------------------------------------------------------------------|
E  ---------------------------------------------------------------------------------------------|
B  ---------------------------------------------------------------------------------------------|
F# -8----------8----------9----------9*-11*-12*-11*-8----------8----------7----------7----------|
C# ---8*-7*-8*---8*-7*-8*---9*-8*-9*------------------8*-7*-8*---8*-7*-8*---7*-6*-7*---7*-6*-7*-|

Riff 5A

C# -------------------------------------------------------------------------------------------|
Ab -------------------------------------------------------------------------------------------|
E  -------------------------------------------------------------------------------------------|
B  -7----------7----------8-----------------11*-10*-7----------7----------6----5-----6---5----|
F# ----------------------------------9*-11*---------------------------------------------------|
C# ---8*-7*-8*---8*-7*-8*---9*-8*-9*------------------8*-7*-8*---8*-7*-8*---7*---7*---7*---7*-|

Order

Riff 1/1A x 2
Riff 2/2A x 1
Riff 1/1A x 1
Riff 1B x 1
Riff 3/3A x 2
Riff 3/3B x 2
Riff 4/4A x 1
Solo over Riff 4/4A x 1
Riff 5/5A x 1
Riff 4/4A x 1
Solo over Riff 4/4B x 1
Riff 5/5A x 2
Riff 1/1A x 2
Riff 2/2A x 1
            
Submit corrections

comments powered by Disqus
↑ Back to top | Hate Eternal Tabs for Praise Of The Almighty. Lyrics for acoustic guitar and electric guitar. Tablatures and chords are parodies/interpretations of the original songs. You may use it for private study, scholarship, research or language learning purposes only