>
 >
Powers That Be

Powers That Be Guitar Tabs

Hate Eternal - Powers That Be chords, tabs, tablatures, lyrics

Guitar lessons | Add/correct | Request | Top 50 tabs Artists:  A B C D E F G H I J K L M N O P Q R S T U V W X Y Z 0-9

Powers That Be Guitar Tabs – Hate Eternal

CD, Sheet music, Poster

Do you like Powers That Be? Share with your friends now
Tabs
Band:  Hate Eternal
Copyright (c)  Earache/Wicked World records 2002
Version 1.0 -  02-12-11
.  - palm mute           /  - slide up to
  - slide down to       ~  - vibrato
h  - hammer on           b  - Bend
p  - pull off            Suffixes for bend
t  - tap                 f  - full bend    h - half bend
ph - pinched harmonic    q  - quarter bend t - tap bend
*  - see comment         ^  - Hold bend    r release bend
x  - Stuccatto           ~  - vibrato bend
,  - slight palm mute    () - ghost note, sustained note
"  - tremolo note        <> - Trill


Tunning C# F# B E G# C#


i didnt add how many times a rif is played or
wether its tremolopicked or not so just listen to the song



riff 1 left

|---------------------|----------------------|---------------------|-------|
|---------------------|----------------------|---------------------|-------|
|--------------232----|---------32-----------|---------32---232----|-------|
|--3--434---434---434-|--3--434---43---------|--3--434---434---44~-|3--2---|
|---------------------|-------------545421---|---------------------|-------|
|1--2---212-----------|1--2---------------32-|1--2-----------------|--1--0-|


riff 1 right

|---------------------|----------------------|---------------------|-------|
|---------------------|----------------------|---------------------|-------|
|--------------232----|---------32-----------|---------32---232-2~-|-------|
|--3--434---434---434-|--3--434---4343-------|--3--434---434---4---|3------|
|---------------------|---------------5421---|---------------------|-3-2---|
|1--2----212----------|1--2---------------32-|1--2-----------------|-----2-|

one ending is like this somewhere in the song just listen to find it
|--------|
|--------|
|--------|
|--3---2-|
|--------|
|1---0---|


riff 2 left

|----------|------------|---------|
|----------|------------|---------|
|----------|------------|---------|
|----------|------------|---------|
|----------|------------|2-----1--|
|1-4-010-3-|1-4-010-343-|--4-3----|


riff 2 right

|----------|------------|---------|
|----------|------------|---------|
|----------|------------|---------|
|----------|------------|---------|
|--3-----2-|--3-----232-|---------|
|1---010---|1---010-----|4-1-0-3--|


riff 3 left

|-----------------------------------------|
|-----------------------------------------|
|-----------------------------------------|
|-----------------------------------------|
|3----3----3----3----3----3----2----2-----|
|-131--131--131--131--131--131--020--020--|
  ...  ...  ...  ...  ...  ...  ...  ...


|-----------------------------------------|
|-----------------------------------------|
|-----------------------------------------|
|-----------------------------------------|
|3----3----3----3----6----6----5----5-----|
|-131--131--131--131--464--464--353--353--|
  ...  ...  ...  ...  ...  ...  ...  ...

|-----------------------------------------|
|-----------------------------------------|
|-----------------------------------------|
|-----------------------------------------|
|3----3----3----3----3----3----2----2-----|
|-131--131--131--131--131--131--020--020--|
  ...  ...  ...  ...  ...  ...  ...  ...


end 1  listen the song for the amount of h/p
|--------------------------------------------|
|------h and p---------------h and p---------|
|-----505050505050505------0404040404/5~ph---|
|--------------------------------------------|
|2-------------------------------------------|
|-020-------------------02-------------------|
  ...                   ..

end 2  listen the song for the amount of h/p
|----------------------5-4-5-7-8-7-5-4--|
|------h and p---------5-4-5-7-8-7-5-4--|
|-----505050505050505-------------------|
|---------------------------------------|
|2--------------------------------------|
|-020-----------------------------------|
  ...

riff 3 right

play the left riff with end 1 once and then
A
|---------------------------------------------------------|
|---------------------------------------------------------|
|---------------------------------------------------------|
|---------------------------------------------------------|
|----33-----33-----33-----22-----33-----33-----66-----55--|
|1311---1311---1311---0200---1311---1311---4644---3533----|
 ....   ....   ....   ....   ....   ....   ....   ....

|------------------------------------------------------------|
|------------------------------------------------------------|
|------------------------------------------------------------|
|------------------------------------------------------------|
|----33-----33-----33-----22-----22-----22----2---2---2---2--|
|1311---1311---1311---0200---0200---0200----20--20--20--20---|
 ....   ....   ....   ....   ....   .....   ..  ..  ..  ..
B
|---------------------------------------------------------|
|---------------------------------------------------------|
|---------------------------------------------------------|
|---------------------------------------------------------|
|----66-----66-----66-----55-----66-----66-----99-----88--|
|4644---4644---4644---3533---4644---4644---7977---6866----|
 ....   ....   ....   ....   ....   ....   ....   ....

|----------------------------5-4-5-7-8-7-5-4--|
|----------------------------5-4-5-7-8-7-5-4--|
|---------------------------------------------|
|---------------------------------------------|
|----66-----66-----66-----55------------------|
|4644---4644---4644---3533--------------------|
 ....   ....   ....   ....

riff 4 left
theres some tremolopicking in this riff, just listen

|----------------------|-----------------------|
|----------------------|-----------------------|
|----------------------|-----------------------|
|4--------43----32--2--|3--------32----21---1--|
|--5----25--5-----4----|--4----14--4-----3-----|
|----245------4----2---|----134------3----1----|


riff 4 right
A
|-----------------------|-----------------------|
|-----------------------|-----------------------|
|-----------------------|-----------------------|
|4--------43----32---2--|3--------32----21---1--|
|--5----25--5-----4-----|--4----14--4-----3-----|
|----245------4----2----|----134------3----1----|

B
|-----------------------|-----------------------|
|-----------------------|-----------------------|
|-----------------------|-----------------------|
|7--------76----65---5--|6--------65----54---4--|
|--8----58--8-----7-----|--7----47--7-----6-----|
|----578------7----5----|----467------6----4----|


enjoy





Comments


Popular Hate Eternal tabs & chords
Born By Fire Tabs
Dethroned Tabs
Dogma Condemned 1 Tabs
I, Monarch Tabs
King Of All Kings 2 Tabs
Nailed To Obscurity Tabs
Rebirth Tabs
Thus Salvation Tabs
Two Demons Tabs
Whom Gods May Destroy Tabs


Song lyrics



↑ Back to top | Tablatures and chords are parodies/interpretations of the original songs. You may use it for private study, scholarship, research or language learning purposes only
© 2014 AZChords.com Contact us | Privacy policy | DMCA | Add/correct tabs | Request tabs | Top 50 tabs