» » »

Hate Eternal, Path To The Eternal Gods Tabs (ver.2)

Artists:  A B C D E F G H I J K L M N O P Q R S T U V W X Y Z # 

Path To The Eternal Gods Tabs (ver.2)

Hate Eternal Tabs
 Rating:
4/5 (4 votes)
Path To The Eternal Gods lessons Tabs too difficult? Try these video lessons and learn fast
1
                band;hate eternal
song; path to the eternal gods
album; i,monarch
tuning from low to high c#,f#,b,e,g#,c#
just listen to the song for timing and all that good stuff
like all tabs i have done putting in standard so its easier to read


e---------------------------------------------------------------------------|
b---------------------------------------------------------------------------|
g---------------------------------------------------------------------------|
d-8-8--------8-8/--------9-9/--------8-8------8-8/--------9-9/------11-11---|
a---------------------------------------------7-7/--------8-8/--------------|
e-6-6--------6-6/--------7-7/--------6-6------6-6/--------7-7/-------9--9---|

e----------------------------------------------------------------------------|
b----------------------------------------------------------------------------|
g----------------------------------------------------------------------------|
d--------------------------11-11/------12-12/------11-11---------------------|
a-7/8/7-8/9/8-7/8/7-8/9/8----------------------------------------------------|
e-6/7/6-7/8/7-6/7/6-7/8/7---9--9/------10-10/-------9--9--000011118888777755-|

e------------------------------------------------------------------------|
b------------------------------------------------------------------------|
g------------------------------------------------------------------------|
d-11-11----12-12---------------777777777------------777777777------------|
a-10-10----11-11-----------555------------------555------------------555-|
e--9--9----10-10----555555---------------666666---------------555555-----|

e----------------------------------------------------------------------|
b----------------------------------------------------------------------|
g----------------------------------------------------------------------|
d-777777777------------777888888------------777666666--11---11---------|
a------------------555------------------555----------------------7/8/7-|
e-----------444444---------------444444-----------------9----9---6/7/6-|

e---------------------------------------------------------------------------|
b---------------------------------------------------------------------------|
g---------------------------------------------------------------------------|
d-------------------11---11/-------12---12/----11---11/---------------------|
a-8/9/8-7/8/7-8/9/8---------------------------------------------------------|
e-7/8/7-6/7/6-7/8/7--9----9/-------10---10/-----9----9/----0000111188887777-|

e--------------------------------------------------------------------------|
b--------------------------------------------------------------------------|
g--------------------------------------------------------------------------|
d----11---11/------12---12/----11---11/-------------------------12---12/---|
a--------------------------------------------------------------------------|
e-55--9----9/------10---10/-----9----9/------000011118888777755-10---10/---|

e---------------------------------------------------------------------------|
b---------------------------------------------------------------------------|
g---------------------------------------------------------------------------|
d------------777777777------------777777777------------777888888------------|
a--------555------------------555------------------555------------------555-|
e-555555---------------666666---------------444444---------------444444-----|

e--------------------------------------------------------------------------|
b--------------------------------------------------------------------------|
g--------------------------------------------------------------------------|
d-777666666------------777888888------------777777777------------777777777-|
a------------------555------------------555------------------555-----------|
e-----------555555---------------444444---------------222222---------------|

e---------------------------------------------------------------------------|
b---------------------------------------------------------------------------|
g---------------------------------------------------------------------------|
d------------777777777------------777777777------------777777777------------|
a--------555------------------555------------------555------------------555-|
e-111111---------------333333---------------111111---------------222222-----|

e-----------------------------------------------------------------------|
b-----------------------------------------------------------------------|
g-----------------------------------------------------------------------|
d-777777777------------777666666-11---11-x-x--12---12/---11---11---11---|
a------------------555-----------10---10-x-x--11---11/---10---10---10---|
e-----------111111----------------9----9-x-x--10---10/----9----9----9---|

e-------------------------------------------------------------------------|
b-------------------------------------------------------------------------|
g-------------------------------------------------------------------------|
d-11/9/11/9--9---9--------------------------------------------------------|
a-10/8/10/8--8---8---666--666--666--666--666--666--666--666--666--6/3/6/3-|
e--9/7/-9/7--7---7---444--444--444--444--444--444--444--444--444--4/1/4/1-|

e---------------------------------------------------------------------------|
b---------------------------------------------------------------------------|
g---------------------------------------------------------------------------|
d---------------------------------------------------------/10/-/10--10---10-|
a-333--333--777--777--777--777--777--777--777--777--777--7/10/7/10----------|
e-111--111--555--555--555--555--555--555--555--555--555--5/-8/5/-8---8----8-|

e---------------------------------------------------------------------------|
b---------------------------------------------------------------------------|
g---------------------------------------------------------------------------|
d---------------------------------------------------------------------------|
a-666--666--666--666--666--666--666--666--666--6/3/6/3--333--333--777--777--|
e-444--444--444--444--444--444--444--444--444--4/1/4/1--111--111--555--555--|

e---------------------------------------------------------------------------|
b---------------------------------------------------------------------------|
g---------------------------------------------------------------------------|
d-------------------------------------/10/-/10--11---11---11---11/6/11/6--6-|
a-777--777--777--777--777--777--777--7/10/7/10------------------------------|
e-555--555--555--555--555--555--555--5/-8/5/-8---9----9----9----9/4/-9/4--4-|

e---------|
b---------|
g---------|
d-6---6---|
a---------| now the solo starts here which i couldnt figure out but down
e-4---4---|  below here is the rest of the song

e---------------------------------------------------------------------|
b---------------------------------------------------------------------|
g---------------------------------------------------------------------|
d-8-8---------------------------8-8/---------------------------9-9/---|
a-------7/8/7-8/9/8-7/8/7-8/9/8--------7/8/7-8/9/8-7/8/7-8/9/8--------|
e-6-6---6/7/6-7/8/7-6/7/6-7/8/7-6-6/---6/7/6-7/8/7-6/7/6-7/8/7-7-7/---|

e-------------------------------------------------------------------|
b-------------------------------------------------------------------|
g-------------------------------------------------------------------|
d-------------------------11-11/---------------------------12-12/---|
a-7/8/7-8/9/8-7/8/7-8/9/8----------7/8/7-8/9/8-7/8/7-8/9/8----------|
e-6/7/6-7/8/7-6/7/6-7/8/7--9--9/---6/7/6-7/8/7-6/7/6-7/8/7-10-10/---|

e----------------------------------------------------------|
b----------------------------------------------------------|
g----------------------------------------------------------|
d-------------------------11-11--------------------11------|
a-7/8/7-8/9/8-7/8/7-8/9/8----------------------------------| and thats it
e-6/7/6-7/8/7-6/7/6-7/8/7--9--9-000011118888777755--9------|
            
Submit corrections

comments powered by Disqus
↑ Back to top | Hate Eternal Tabs for Path To The Eternal Gods. Lyrics for acoustic guitar and electric guitar. 1 Tablatures and chords are parodies/interpretations of the original songs. You may use it for private study, scholarship, research or language learning purposes only