» » »

Hate Eternal, Para Bellum Tabs (ver.1)

Artists:  A B C D E F G H I J K L M N O P Q R S T U V W X Y Z # 

Para Bellum Tabs (ver.1)

Hate Eternal Tabs
 Rating:
4/5 (4 votes)
Para Bellum lessons Tabs too difficult? Try these video lessons and learn fast
                band;hate eternal
song;para bellum
album; fury and flames
tuning from low to high c#,f#,b,e,g#,c#
putting in standard so its easier to read and this is the best that i could come up with
for this song

intro
e---------------------------------------------------------------------|
b---------------------------------------------------------------------|
g-333333444444888888666666--------------------------------------------|
d-222222333333777777555555---5555555588888888999999991111111111111111-|
a-111111222222666666444444-2-4444444477777777888888881010101010101010-|
e-000000111111555555333333-0-333333336666666677777777-9-9-9-9-9-9-9-9-|
                           .

riff 1
e---------------------------------------------------------|
b---------------------------------------------------------|
g---------------------------------------------------------|
d------4------4------5------5------7------7------9------9-|
a---------------------------------------------------------|
e-2222---2222---3333---3333---5555---5555---7777---7777---|
  ....   ....   ....   ....   ....   ....   ....   ....

riff 2 play 2 times
e------------------|
b------------------|
g------------------|
d-----666666555555-|
a-5-4-555555444444-|
e-5-4--------------|

riff 3
e------------------------------------------|
b------------------------------------------|
g------------------------------------------|
d-5555555588888888999999991111111111111111-
a-4444444477777777888888881010101010101010-
e-333333336666666677777777-9-9-9-9-9-9-9-9-

now riff 1 again
e---------------------------------------------------------|
b---------------------------------------------------------|
g---------------------------------------------------------|
d------4------4------5------5------7------7------9------9-|
a---------------------------------------------------------|
e-2222---2222---3333---3333---5555---5555---7777---7777---|
  ....   ....   ....   ....   ....   ....   ....   ....

riff 4
e---------------------------------------------|
b---------------------------------------------|
g---------------------------------------------|
d---------------------------------------------|
a-4--4-4---4-4/3--7-6-5-4-4/3-4-4-------6---4-|
e-2--2-2---2-2/1--5-4-3-2-2/1-2-2---0-0-4-0-2-|
                  . . .             . .   .

riff 5 play this 4 times
e----------------------------------|
b----------------------------------|
g----------------------------------|
d-------------------------66664444-|
a------------------444555----------|
e-0000222266665555-----------------|
  ................

now riff 1 again
e----------------------------------------------------------|
b----------------------------------------------------------|
g----------------------------------------------------------|
d------4------4------5------5------7------7------9------9--|
a----------------------------------------------------------|
e-2222---2222---3333---3333---5555---5555---7777---7777----|
  ....   ....   ....   ....   ....   ....   ....   ....
now go back and play riff 2 two times again then play riff 3 once
then play riff 5 four times again

now riff 6 this i know is under 2 minutes and 8 seconds
e-------------------------------------------------------------------------|
b-------------------------------------------------------------------------|
g-----6-------6---6-6-------------------6-------6---6-6-------------------|
d-----5-------5---5-5-------------------5-------5---5-5-------------------|
a-4-3-4---4-3-4---4-4---6-5-4-3-5-4-3-2-4---4-3-4---4-4---6-5-4-3-5-4-3-2-|
e-2-1-3---2-1-3---3-3---4-3-2-1-3-2-1-0-3---2-1-3---3-3---4-3-2-1-3-2-1-0-|
  . .     . .           . . . . . . . .     . .           . . . . . . . .

riff 7 play this 4 times
e--------------------------------------------------|
b--------------------------------------------------|
g--------------------------------------------------|
d-444444447777777766666666999999991111111111111111-|
a-333333336666666655555555888888881010101010101010-|
e-22222222555555554444444477777777-9-9-9-9-9-9-9-9-|

now a solo starts couldnt figure it out but after the solo play riff 1 again then play
riff 2 again 2 times then play riff 5 again 4 times then play riff 7 again 4 times

riff 8 ends song should end at 4 minutes and 30 seconds
e---------------|
b---------------|
g---------------|
d---------------|
a-4-4-4/3-4-4---|
e-2-2-2/1-2-2---|
            
Submit corrections

comments powered by Disqus
↑ Back to top | Hate Eternal Tabs for Para Bellum. Lyrics for acoustic guitar and electric guitar. Tablatures and chords are parodies/interpretations of the original songs. You may use it for private study, scholarship, research or language learning purposes only