» » »

Lake Ablaze Tabs (ver.1)

Artists:  A B C D E F G H I J K L M N O P Q R S T U V W X Y Z # 

Lake Ablaze Tabs (ver.1)

Hate Eternal
Rating:
0/5 (0 votes)

Hard to play? Try these video lessons and learn fast.
                band;hate eternal
album;pheinoix amongst the ashes
song; lake ablaze
tuning from low to high; c#,f#,b,e,g#,c#
like always putting in standard so its easier to read
this was the best that i could do for this song

main intro

e---------------------------------------------------------------------|
b---------------------------------------------------------------------|
g----------------------------------------------------7---8---9---10---|
d-11-10/9-7--------11-10/9-7--------11-10/9-7--------6---7---8----9---|
a---------------------------------------------------------------------|
e--9--8/7-5-000000--9--8/7-5-000000--9--8/7-5-000000---0---0---0----0-|
            ......           ......           ......   .   .   .    .
main intro continued play the main intro 2 times
e--------------------------------------------------------------------------|
b--------------------------------------------------------------------------|
g--------------------------------------------------------------------------|
d-11-10/9-7--------11-10/9-7--------999999--------111111111111-----12"-----|
a--------------------------------------------------------------------------|
e--9--8/7-5-000000--9--8/7-5-777777--------999999--------------10"---------|
            ......           ......        ......               .

riff 1 play 2 times
e---------------------------------------------------------|
b---------------------------------------------------------|
g-----------------------------------------------6-5---7-3-|
d-----------------------------------------------5-4---6-2-|
a-----------------------------------------------4-3---5-1-|
e-0-0-0-0-0-0-0-0-0-0-0-0-0-0-0-0-0-0-0-0-0-0-0-----0-----|
  . . . . . . . . . . . . . . . . . . . . . . .     .

now go back and play the intro again play main intro 2 times again
then play riff 1 again 4 times then a solo will start after that now comes
riff 2

riff 2 only played once
e--------------------------------------------------------------------------|
b--------------------------------------------------------------------------|
g--------------------------------------------------------------------------|
d----------111111111111--------------121212121212----------11"12"13"--11---|
a--------------------------------------------------------------------------|
e-99998888--------------101010109999--------------99998888-------------9---|

riff 3 note those are 11's 10's and of course 9's
e-------------------------------------------------------------------------|
b-------------------------------------------------------------------------|
g-------------------------------------------------------------------------|
d-2222/11111111-2222/10101010-2222/9999-------2222/11111111-2222/10101010-|
a---------------------------------------4-3-2-----------------------------|
e---------------------------------------4-3-2-----------------------------|
                                        . . .

riff 3 continued
e--------------------------------------------------------------------------|
b--------------------------------------------------------------------------|
g--------------------------------------------------------------------------|
d-----------2222/11111111-2222/10101010-2222/11111111101010109999----------|
a-0-0-4-3-2-------------------------------------------------------4-3-3333-|
e-0-0-4-3-2-------------------------------------------------------4-3------|
  . . . . .                                                       . .
the last of riff 3 play all of riff 3 4 times ending the song
e---------|
b---------|
g---------|
d---------|
a-0-4-3-2-|
e-0-4-3-2-|
  . . . .
  hope u all enjoy
            
Hard to play? Try these video lessons and learn fast. | Correct




comments powered by Disqus
↑ Back to top | Tablatures and chords are parodies/interpretations of the original songs. You may use it for private study, scholarship, research or language learning purposes only