» » »

Hate Eternal, Faceless One Tabs (ver.1)

Artists:  A B C D E F G H I J K L M N O P Q R S T U V W X Y Z # 

Faceless One Tabs (ver.1)

Hate Eternal Tabs
 Rating:
4/5 (4 votes)
Faceless One lessons Tabs too difficult? Try these video lessons and learn fast
1
                Band: Hate Eternal

Copyright (c)  Earache records 2005
Version 1.0 - 22.04.06


_________________________________________________________

.  - palm mute           /  - slide up to
\  - slide down to       ~  - vibrato
h  - hammer on           b  - Bend
p  - pull off            Suffixes for bend
t  - tap                 f  - full bend    h - half bend
ph - pinched harmonic    q  - quarter bend t - tap bend
*  - see comment         ^  - Hold bend    r release bend
x  - Stuccatto           ~  - vibrato bend
,  - slight palm mute    () - ghost note, sustained note
"  - tremolo note        <> - Trill

Tuning C# F# B  E G# C#

_________________________________________________________

Riff 1 0:12
Both Guitars
|------------------------------------------------------------|
|------------------------------------------------------------|
|------------------------------------------------------------|
|---------7\-------------7\-------------6\-------------6---5-|
|-5h8------------5h8------------4h7------------4h7-----------|
|-----3-6----3-6-----3-6----2-5-----2-5----2-5-----2-5---0---|
      . .    . .     . .    . .     . .    . .     . .   .


-------------------------------------------------------------|
-------------------------------------------------------------|
--------------------------------------------------------- ph-|
---------7\-------------7\-------------6\-------------6---5~-|
-5h8------------5h8------------4h7------------4h7------------|
-----3-6----2-5-----2-5----2-5-----2-5----2-5-----2-5---0----|
     . .    . .     . .    . .     . .    . .     . .   .


Riff 2 1:01
Both Guitars
|-------------------------------------------------|
|-------------------------------------------------|
|-------------------------------------------------|
|-3-----------3-----------2-----------2-----------|
|-------------------------------------------------|
|---5-2-5-1-4---5-2-5-1-4---4-1-4-0-3---4-1-4-0-3-|
    . . . . .   . . . . .   . . . . .   . . . . .

---------------------------------------|
---------------------------------------|
---------------------------------------|
-3-----------3-----------3-6-5-6-2-5-3-|
---------------------------------------|
---5-2-5-1-4---5-2-5-1-4--0-0-0-0-0-0--|
   . . . . .   . . . . .  . . . . . .

-----------------------------------------------|
-----------------------------------------------|
-----------------------------------------------|
-----------3-----------2-----------2-----------|
-----------------------------------------------|
-5-2-5-1-4---5-2-5-1-4---4-1-4-0-3---4-1-4-0-3-|
 . . . . .   . . . . .   . . . . .   . . . . .

---------------------------|
---------------------------|
---------------3-4-3-------|
-3-2-5-3-6-5-6-------6-5-3-|
---------------------------|
--0-0-0-0-0-0-0-0-0-0-0-0--|
  . . . . . . . . . . . .


Solo 1 1:25
Lead Guitar w/ wah wah
|--------------------------------------------------------|
|--------------------------------------------------------|
|--------------------------------------------------------|
|-/18~~~-17h18p17\15--14--14h15p14----------------/18~~~-|
|----------------------------------16-16-16--------------|
|--------------------------------------------/16---------|


------------------------------------------------------------------------|
-------------------16-17-16--------------------------------------19-22b-|
-------16-17-16-17----------17--------19h20p19----------19-20-22--------|
-17-18--------------------------20-21----------20-21-20-----------------|
------------------------------------------------------------------------|
------------------------------------------------------------------------|


-------------20--------19-18-19-21-22--24~~~---22bhr--21bhr--18-19-18------|
-------19-20-----21-22------------------------------------------------20---|
-20-21---------------------------------------------------------------------|
---------------------------------------------------------------------------|
---------------------------------------------------------------------------|
---------------------------------------------------------------------------|

-------------------18~~~-|
-20-19-20-17-19-20-------|
-------------------------|
-------------------------|
-------------------------|
-------------------------|


Riff 2 1:48
Both Guitars
|-------------------------------------------------|
|-------------------------------------------------|
|-------------------------------------------------|
|-3-----------3-----------2-----------2-----------|
|-------------------------------------------------|
|---5-2-5-1-4---5-2-5-1-4---4-1-4-0-3---4-1-4-0-3-|
    . . . . .   . . . . .   . . . . .   . . . . .

---------------------------------------|
---------------------------------------|
---------------------------------------|
-3-----------3-----------3-6-5-6-2-5-3-|
---------------------------------------|
---5-2-5-1-4---5-2-5-1-4--0-0-0-0-0-0--|
   . . . . .   . . . . .  . . . . . .

-----------------------------------------------|
-----------------------------------------------|
-----------------------------------------------|
-----------3-----------2-----------2-----------|
-----------------------------------------------|
-5-2-5-1-4---5-2-5-1-4---4-1-4-0-3---4-1-4-0-3-|
 . . . . .   . . . . .   . . . . .   . . . . .

---------------------------|
---------------------------|
---------------3-4-3-------|
-3-2-5-3-6-5-6-------6-5-3-|
---------------------------|
--0-0-0-0-0-0-0-0-0-0-0-0--|
  . . . . . . . . . . . .


Riff 3 2:35
Both Guitars
|-----------------------------------------------------------------------|
|-----------------------------------------------------------------------|
|---------------3-4-6-7-6----------------3-4-3-----4-----------------ph-|
|-3-2-5-3-6-5-6------------3-2-5-3-6-5-6-------6-5---6-5-6-5-3-2-3-5-6--|
|-----------------------------------------------------------------------|
|--0-0-0-0-0-0-0-0-0-0-0----0-0-0-0-0-0-0-0-0-0-0-0-0-0-0-0-0-0-0-0-0---|
   . . . . . . . . . . .    . . . . . . . . . . . . . . . . . . . . .

---------------------------|
---------------------------|
---------------3-4-3-------|
-3-2-5-3-6-5-6-------6-5-3-|
---------------------------|
--0-0-0-0-0-0-0-0-0-0-0-0--|
  . . . . . . . . . . . .


Riff 2 2:57
Both Guitars
|-------------------------------------------------|
|-------------------------------------------------|
|-------------------------------------------------|
|-3-----------3-----------2-----------2-----------|
|-------------------------------------------------|
|---5-2-5-1-4---5-2-5-1-4---4-1-4-0-3---4-1-4-0-3-|
    . . . . .   . . . . .   . . . . .   . . . . .

---------------------------------------|
---------------------------------------|
---------------------------------------|
-3-----------3-----------3-6-5-6-2-5-3-|
---------------------------------------|
---5-2-5-1-4---5-2-5-1-4--0-0-0-0-0-0--|
   . . . . .   . . . . .  . . . . . .

-----------------------------------------------|
-----------------------------------------------|
-----------------------------------------------|
-----------3-----------2-----------2-----------|
-----------------------------------------------|
-5-2-5-1-4---5-2-5-1-4---4-1-4-0-3---4-1-4-0-3-|
 . . . . .   . . . . .   . . . . .   . . . . .

---------------------------|
---------------------------|
---------------3-4-3-------|
-3-2-5-3-6-5-6-------6-5-3-|
---------------------------|
--0-0-0-0-0-0-0-0-0-0-0-0--|
  . . . . . . . . . . . .


Solo 2 3:20


Riff 1 3:43
Both Guitars
|------------------------------------------------------------|
|------------------------------------------------------------|
|------------------------------------------------------------|
|---------7\-------------7\-------------6\-------------6---5-|
|-5h8------------5h8------------4h7------------4h7-----------|
|-----3-6----3-6-----3-6----2-5-----2-5----2-5-----2-5---0---|
      . .    . .     . .    . .     . .    . .     . .   .


-------------------------------------------------------------|
-------------------------------------------------------------|
--------------------------------------------------------- ph-|
---------7\-------------7\-------------6\-------------6---5~-|
-5h8------------5h8------------4h7------------4h7------------|
-----3-6----2-5-----2-5----2-5-----2-5----2-5-----2-5---0----|
     . .    . .     . .    . .     . .    . .     . .   .
            
Submit corrections

comments powered by Disqus
↑ Back to top | Hate Eternal Tabs for Faceless One. Lyrics for acoustic guitar and electric guitar. 1 Tablatures and chords are parodies/interpretations of the original songs. You may use it for private study, scholarship, research or language learning purposes only