>
 >
Catacombs

Catacombs Guitar Tabs

Hate Eternal - Catacombs chords, tabs, tablatures, lyrics

Guitar lessons | Add/correct | Request | Top 50 tabs Artists:  A B C D E F G H I J K L M N O P Q R S T U V W X Y Z 0-9

Catacombs Guitar Tabs – Hate Eternal

CD, Sheet music, Poster

Do you like Catacombs? Share with your friends now
Tabs
                 H A T E  E T E R N A L  -  C A T A C O M B S
                     From the Album CONQUERING THE THRONE
                        Copyright 1999 EARACHE RECORDS

                             Version 2.0 - JUNE '02


For Questions, Comments, Newest Version, or Corrections contact





.  - palm mute                  /  - slide up to
\  - slide down to              ~  - vibrato
"  - tremelo picking           ( ) - ghost note
b  - bend                       h  - hammer-on
fb - full bend (1 step)         p  - pull-off
hb - half bend (1/2 step)       r  - release a bend
t  - tapping                    ah - artificial harmonic

Tune Gtr to D

--CATACOMBS--

[Riff A]
[-------------------------------|-------------------------------]
[-------------------------------|-------------------------------]
[*------------------------------|------------------------------*]GTR 1
[*-5"---------4"----------------|-5"--------4"-7--7"-10--6"-9--*] 
[-------------------------------|-------------------------------]
[-------3--0--------3--0--5--2--|-----3--0----------------------]
   .    .  .  .     .  .  .  .    .   .  .  .  .  .   .  .  .

[-------------------------------|-------------------------------]
[-------------------------------|-------------------------------]
[*------------------------------|------------------------------*]GTR 2
[*------------------------------|------------------------------*] 
[-------------------------------|-------------------------------]
[--3"---3--0--2"----3--0--5--2--|-3"--3--0--2"-5--5"-8--4"--7---]
   .    .  .  .     .  .  .  .    .   .  .  .  .  .  .  .   .

                                                     [End Riff A]
[-------------------------------|-------------------------------]
[-------------------------------|-------------------------------]
[*------------------------------|------------------------------*]GTR 1
[*-5"---------4"----------------|-5"--------4"-7--7"-10--6"-9--*] 
[-------------------------------|-------------------------------]
[-------3--0--------3--0--5--2--|-----3--0----------------------]
   .    .  .  .     .  .  .  .    .   .  .  .  .  .   .  .  .

                                                     [End Riff A]
[-------------------------------|-------------------------------]
[-------------------------------|-------------------------------]
[*------------------------------|------------------------------*]GTR 2
[*------------------------------|------------------------------*] 
[-------------------------------|-------------------------------]
[--3"---3--0--2"----3--0--5--2--|-3"--3--0--2"-5--5"-8--4"--7---]
   .    .  .  .     .  .  .  .    .   .  .  .  .  .  .  .   .


[Riff A.1]         [End Riff A.1]
[-------------------------------]
[-------------------------------]
[*-----------------------------*]GTR 1
[*-5"---------4"---------------*]
[-------------------------------]
[-------3--0--------3--0--5--2--]
   .    .  .  .     .  .  .  .

                   [End Riff A.1]
[-------------------------------]
[-------------------------------]
[*-----------------------------*]GTR 2
[*-----------------------------*]
[-------------------------------]
[--3"---3--0--2"----3--0--5--2--]
   .    .  .  .     .  .  .  .


[Riff B]                                                   [End Riff B]
[-------------------------------------|-------------------------------]
[-------------------------------------|-------------------------------]
[*------------------------------------|------------------------------*]GTR 1
[*-5-------------/6---3-------5-------|-5-/-6---5---3---/6---5---3---*]
[-------------------------------------|-------------------------------]
[--3---0---3--0--/4---1---0---3---0---|-3-/-4---3---1---/4---3---1----]
           .  .  sl                       sl            sl

                                                           [End Riff B]
[-------------------------------------|-------------------------------]
[-------------------------------------|-------------------------------]
[*------------------------------------|------------------------------*]GTR 2
[*-5-------------/5---2-------5-------|-4-/-5---4---2---/5---4---2---*]
[------2---------/6---3---2-------2---|-5-/-6---5---3---/6---5---3----]
[--3---0---3--0--sl-------0---3---0---|---sl-------------sl-----------]
           .  .                                       


Play Riff B   3 times
Play Riff A   1 time
Play Riff A.1 1 time
Play Riff B   8 times


[Riff C]                                                       
[----------------------|---------------------|---------------------]
[----------------------|---------------------|---------------------]
[*---------------------|-----------77--------|--------------------*]GTR 1
[*---------------------|-556--445----8--556--|-445--334--223------*] 
[----------------------|---------------------|---------------------]
[--334--223--112--000--|---------------------|----------------000--]
   ...  ...  ...  ...    ...  ...  ...  ...    ...  ...  ...  ...

[----------------------|---------------------|---------------------]
[----------------------|---------------------|---------------------]
[*---------------------|-----------77--------|--------------------*]GTR 2
[*---------------------|-556--445----8--556--|--------------------*] 
[----------------------|---------------------|---------------------]
[--334--223--112--000--|---------------------|-223--112--001--000--]
   ...  ...  ...  ...    ...  ...  ...  ...    ...  ...  ...  ...

[----------------------|---------------------|---------------------]
[----------------------|---------------------|---------------------]
[*---------------------|-----------77--------|--------------------*]GTR 1
[*---------------------|-556--445----8--556--|-445--334--223------*] 
[----------------------|---------------------|---------------------]
[--334--223--112--000--|---------------------|----------------000--]
   ...  ...  ...  ...    ...  ...  ...  ...    ...  ...  ...  ...

[----------------------|---------------------|---------------------]
[----------------------|---------------------|---------------------]
[*---------------------|-----------77--------|--------------------*]GTR 2
[*---------------------|-556--445----8--556--|--------------------*] 
[----------------------|---------------------|---------------------]
[--334--223--112--000--|---------------------|-223--112--001--000--]
   ...  ...  ...  ...    ...  ...  ...  ...    ...  ...  ...  ...

                                                        [1st Ending]
[----------------------|---------------------|---------------------]
[----------------------|---------------------|---------------------]
[*---------------------|-----------77--------|--------------------*]GTR 1
[*---------------------|-556--445----8--556--|--------------------*] 
[----------------------|---------------------|-556--445--334-------]
[--334--223--112--000--|---------------------|----------------000--]
   ...  ...  ...  ...    ...  ...  ...  ...    ...  ...  ...  ...

                                                        [1st Ending]
[----------------------|---------------------|---------------------]
[----------------------|---------------------|---------------------]
[*---------------------|-----------77--------|--------------------*]GTR 2
[*---------------------|-556--445----8--556--|--------------------*] 
[----------------------|---------------------|---------------------]
[--334--223--112--000--|---------------------|-334--223--112--000--]
   ...  ...  ...  ...    ...  ...  ...  ...    ...  ...  ...  ...

[----------------------|---------------------|---------------------]
[----------------------|---------------------|---------------------]
[*---------------------|-----------77--------|--------------------*]GTR 1
[*---------------------|-556--445----8--556--|-445--334--223------*] 
[----------------------|---------------------|---------------------]
[--334--223--112--000--|---------------------|----------------000--]
   ...  ...  ...  ...    ...  ...  ...  ...    ...  ...  ...  ...

[----------------------|---------------------|---------------------]
[----------------------|---------------------|---------------------]
[*---------------------|-----------77--------|--------------------*]GTR 2
[*---------------------|-556--445----8--556--|--------------------*] 
[----------------------|---------------------|---------------------]
[--334--223--112--000--|---------------------|-223--112--001--000--]
   ...  ...  ...  ...    ...  ...  ...  ...    ...  ...  ...  ...

[----------------------|---------------------|---------------------]
[----------------------|---------------------|---------------------]
[*---------------------|-----------77--------|--------------------*]GTR 1
[*---------------------|-556--445----8--556--|-445--334--223------*] 
[----------------------|---------------------|---------------------]
[--334--223--112--000--|---------------------|----------------000--]
   ...  ...  ...  ...    ...  ...  ...  ...    ...  ...  ...  ...

[----------------------|---------------------|---------------------]
[----------------------|---------------------|---------------------]
[*---------------------|-----------77--------|--------------------*]GTR 2
[*---------------------|-556--445----8--556--|--------------------*] 
[----------------------|---------------------|---------------------]
[--334--223--112--000--|---------------------|-223--112--001--000--]
   ...  ...  ...  ...    ...  ...  ...  ...    ...  ...  ...  ...

                                                        [2nd Ending]
[----------------------|---------------------|---------------------]
[----------------------|---------------------|---------------------]
[*---------------------|-----------77--------|--------------------*]GTRS 1&2
[*---------------------|-556--445----8--556--|--------5-----------*] 
[----------------------|---------------------|--------4--4---------]
[--334--223--112--000--|---------------------|-0--/3-----3---3--0--]
   ...  ...  ...  ...    ...  ...  ...  ...      sl Let Ring .  .

[con't]     [End Riff C]
[----------------------]
[----------------------]
[*--------------------*]GTRS 1&2
[*------8-------------*]
[-------7---7----------]
[--/6-------6---0--0---]
  sl Let Ring   .  .


Play Riff C 1 time


[Riff D]                           [End Riff D]
[------------------------|--------------------]
[------------------------|--------------------]
[*-----------------------|-------------------*]GTRS 1&2
[*---------5-------------|------8------------*] 
[----------4---4---------|------7---7---------]
[--0--/3-------3---3--0--|-/6-------6---0--0--]
      sl           .  .    sl           .  .


Play Riff D 7 times


[Riff E]
[------------------------------|----------------------------]
[------------------------------|----------------------------]
[*-----------------------------|--------5"-6"-5"----5"-----*]GTRS 1&2
[*-----------------------------|----8"-----------8"--------*]
[------4"------3"------2"------|-7"-------------------------]
[--3"------2"------1"------0"--|------------------------0"--]
   .   .   .   .   .   .   .     .  .   .  .  .  .  .   .

[------------------------------|----------------------------]
[------------------------------|----------------------------]
[*-----------------------------|---------------------------*]GTRS 1&2
[*-----------------------------|----5--------------8-------*]
[------4"------3"------2"------|----4--4-----------7--7-----]
[--3"------2"------1"------0"--|-/3----3--3--0--/6----6--0"-]
   .   .   .   .   .   .   .     sl       .  .  sl       .     


Play Riff E 3 times


[Riff F]
[----------------------------------------------------------]
[----------------------------------------------------------]
[*--------------------------------------------------------*]GTR 1
[*--------------------------------------------------------*] 
[----------------------------------------------------------]
[--2--3--0--1"--0"--3--4--1--3"--0"--2"--3--4--1--3"--0"---]
   .  .  .  .   .   .  .  .  .   .   .   .  .  .  .   .

[----------------------------------------------------------]
[----------------------------------------------------------]
[*--------------------------------------------------------*]GTR 2
[*--------------------------------------------------------*]
[-----------3"--2"-----------5"--2"--4"-----------5"--2"---]
[--2--3--0----------3--4--1--------------3--4--1-----------]
   .  .  .  .   .   .  .  .  .   .   .   .  .  .  .   .

[----------------------------------------------------------]
[----------------------------------------------------------]
[*--------------------------------------------------------*]GTR 1
[*--------------------------------------------------------*] 
[----------------------------------------------------------]
[--2--3--0--1"--0"--1"--2--3--0--1"--0"--3--4--1--3"-0"-2"-]
   .  .  .  .   .   .   .  .  .  .   .   .  .  .  .  .  .

[----------------------------------------------------------]
[----------------------------------------------------------]
[*--------------------------------------------------------*]GTR 2
[*--------------------------------------------------------*]
[-----------3"--2"--3"-----------3"--2"-----------5"-2"-4"-]
[--2--3--0--------------2--3--0----------3--4--1-----------]
   .  .  .  .   .   .  .  .  .   .   .  .  .  .  .  .  .   

[----------------------------------------------------------]
[----------------------------------------------------------]
[*--------------------------------------------------------*]GTR 1
[*--------------------------------------------------------*] 
[----------------------------------------------------------]
[--2--3--0--1"--0"--3--4--1--3"--0"--2--3--0--3"-4"-3"-1"--]
   .  .  .  .   .   .  .  .  .   .   .  .  .  .  .  .  .   

[----------------------------------------------------------]
[----------------------------------------------------------]
[*--------------------------------------------------------*]GTR 2
[*--------------------------------------------------------*]
[-----------3"--2"-----------5"--2"-----------5"-6"-5"-3"--]
[--2--3--0----------3--4--1----------2--3--0---------------]
   .  .  .  .   .   .  .  .  .   .   .  .  .  .  .  .  .   


Play Riff F  1 time
Play Riff B 12 times (over solo)


[Solo]
[--------------/15------------------14151718171514----------------]
[--/16--15~----sl---14~----13141516----------------16151413-------]
[*-sl-------------------------------------------------------1514-*]GTR 3
[*---------------------------------------------------------------*]
[-----------------------------------------------------------------]
[-----------------------------------------------------------------]

[-----------------------/17------------------/15------------------]
[--1615--------13141516-sl--16~----/15--14~--sl---13~-------------]
[*------131415---------------------sl----------------------------*]GTR 3
[*---------------------------------------------------------------*]
[-----------------------------------------------------------------]
[-----------------------------------------------------------------]

[-----------------------------------------------------------------]
[--14_15_14\13-13_14_13\12-12_13_12\11-11_12_11\10-10_11_10\9-----]
[*---h--p--sl----h--p--sl----h--p--sl----h--p--sl----h--p--sl----*]GTR 3
[*---------------------------------------------------------------*]
[-----------------------------------------------------------------]
[-----------------------------------------------------------------]

[-------------------/20--19~----/22------------------1617191716---]
[--9_10_9-----------sl----------sl---21~----17181920--------------]
[*--h--p--12-11~-------------------------------------------------*]GTR 3
[*---------------------------------------------------------------*]
[-----------------------------------------------------------------]
[-----------------------------------------------------------------]

[---------------------------1617191716--------------------161718--]
[--20191817--------17181920------------20191817--------17---------]
[*----------201920------------------------------201920-----------*]GTR 3
[*---------------------------------------------------------------*]
[-----------------------------------------------------------------]
[-----------------------------------------------------------------]

[--19~----/17--16~----/20-----------------------------------------]
[---------sl----------sl--19~----20-19_20_19\18-18_19_18\17-------]
[*------------------------------------h--p--sl----h--p--sl-------*]GTR 3
[*---------------------------------------------------------------*]
[-----------------------------------------------------------------]
[-----------------------------------------------------------------]

[--------------------------------------/17------------------------]
[--17_18_17\16-17-16-17-18-19-16-17-16-sl--16~--------------------]
[*---h--p--sl----------------------------------------------------*]GTR 3
[*---------------------------------------------------------------*]
[-----------------------------------------------------------------]
[-----------------------------------------------------------------]


Play Riff C  2 times 
Play Riff D  3 times





Comments


Popular Hate Eternal tabs & chords
Bringer Of Storms Tabs
Bringer Of Storms Intro Tabs
Fury Within Intro Tabs
King Of All Kings 1 Tabs
King Of All Kings 2 Tabs
Path To The Eternal Gods 1 Tabs
The Fire Of Resurrection 1 Tabs
Thorns Of Acacia Tabs
Tombeau Le Tombeau De La Fureur Et Des Flammes Tabs
Whom Gods May Destroy Tabs


Song lyrics



↑ Back to top | Tablatures and chords are parodies/interpretations of the original songs. You may use it for private study, scholarship, research or language learning purposes only
© 2014 AZChords.com Contact us | Privacy policy | DMCA | Add/correct tabs | Request tabs | Top 50 tabs