» » »

Hate Eternal, Beyond Redemption Tabs (ver.1)

Artists:  A B C D E F G H I J K L M N O P Q R S T U V W X Y Z # 

Beyond Redemption Tabs (ver.1)

Hate Eternal Tabs
Rating:
0/5 (0 votes)
Beyond Redemption lessons Tabs too difficult? Try these video lessons and learn fast
                band;hate eternal
album;king of all kings
song; beyond redemption
tuning from low to high; c#,f#,b,e,g#,c#
this may be about 80-90% correct this song was a b**ch but what hate eternal
song is easy
this whole tab is guitar one
putting in standard so its easier to read
i do not have a email adress so its hard for me to talk to you
the pure f**king death metal fans that support this awesome band
e------------------------------------------------------------------|
b------------------------------------------------------------------|
g------------------------------------------------------------------|
d-888---------8---7-6-8-8-6-8-8-888---------8---101010----------10-|
a-----9-7-6---7---6-5-7-7-5-7-7-----9-7-6---7----------11-9-8---9--|
e-----------7-6---5-4-6-6-4-6-6-----------7-6-----------------9-8--|

e-------------------------------------------------------------------------|
b-------------------------------------------------------------------------|
g-------------------------------------------------------------------------|
d-6-5-8--6-5-8--6-5-8---------------6-5-8--6-5-8--------------------------|
a-5-4-7--5-4-7--5-4-7---------------5-4-7--5-4-7--------------------------|
e-4-3-6--4-3-6--4-3-6--333333444444-4-3-6--4-3-6-333333444444666666777777-|

e-------------------------------------------------------------------|
b-------------------------------------------------------------------|
g-------------------------------------------------------------------|
d-6-5-8-------------------------------------------------------6-5-8-|
a-5-4-7-------------------------------------------------------5-4-7-|
e-4-3-6--3333444466667777101010106666999955558888444477773333-4-3-6-|

 on this here below play the 0s and 6s three times all together
e-----------------------------------------------------------------------|
b-----------------------------------------------------------------------|
g-----------------------------------------------------------------------|
d-----------------------------------------------------------------------|
a-------------------------------------------------------------------666-|
e-111111111111222222222255554444111111111122222222111111110000-0000-----|

then some crazy solo starts here which i could not figure out because its
hate eternal which i have to say are the gods of pure death metal
now a days but i will have everyone know that i am currently working on the infamous 
song hell envenom so far its coming along but im still going over it to make sure that it 
is 100% correct before i tab it out
            
Submit corrections

comments powered by Disqus
↑ Back to top | Hate Eternal Tabs for Beyond Redemption. Lyrics for acoustic guitar and electric guitar. Tablatures and chords are parodies/interpretations of the original songs. You may use it for private study, scholarship, research or language learning purposes only