» » »

Hatebreed, Will Be Heard Tabs (ver.2)

Artists:  A B C D E F G H I J K L M N O P Q R S T U V W X Y Z # 

Will Be Heard Tabs (ver.2)

Hatebreed Tabs
 Rating:
4/5 (4 votes)
Will Be Heard lessons Tabs too difficult? Try these video lessons and learn fast
1
                C Tuning

Key:

. = palm mute
~ - bend string (back and forth)


INTRO 2x

|------------------------------------|
|------------------------------------|
|------------------------------------|BASS
|-0-1-0-1-3-0-1-0-1-3-0-1-0-1-3-0000-|


RIFF 1 4x
				      GTR 1 (after 4x)
|------------------------------------|-----|
|------------------------------------|-----|
|------------------------------------|-----|
|-0-1-0-1-3-0-1-0-1-3-0-1-0-1-3-0000-|--0--|BOTH GTR
|-0-1-0-1-3-0-1-0-1-3-0-1-0-1-3-0000-|--0--|
|-0-1-0-1-3-0-1-0-1-3-0-1-0-1-3-0000-|--0--|
|                               .... |
|------------------------------------|
|------------------------------------|
|------------------------------------| BASS
|-0-1-0-1-3-0-1-0-1-3-0-1-0-1-3-0000-|

RIFF 2 4x

|-----------------------------|
|-----------------------------|
|-----------------------------|
|-3-5-0-6-0-8-0-3-5-0-6-0-1-0-|GTR 2
|-3-5-0-6-0-8-0-3-5-0-6-0-1-0-|
|-3-5-0-6-0-8-0-3-5-0-6-0-1-0-|
          .   .         .   .

3x

|-----------------------------|
|-----------------------------|
|-----------------------------|
|-3-5-0-6-0-8-0-3-5-0-6-0-1-0-|BOTH GTR
|-3-5-0-6-0-8-0-3-5-0-6-0-1-0-|
|-3-5-0-6-0-8-0-3-5-0-6-0-1-0-|
|         .   .         .   . |
|-----------------------------|
|-----------------------------|
|-----------------------------|BASS
|-3-5-0-6-0-8-0-3-5-0-6-0-1-0-|

RIFF 3 4x

|-----------------------------|
|-----------------------------|
|-----------------------------|
|-00000-00000-00000-3-4-5-4-3-|BOTH GTR
|-00000-00000-00000-3-4-5-4-3-|
|-00000-00000-00000-3-4-5-4-3-|
| ..... ..... .....           |
|-----------------------------|
|-----------------------------|
|-----------------------------|BASS
|-10000-10000-10000-3-4-5-4-3-|

RIFF 4 4x

|------------------------|
|-0~-------1~----3~-1--3-|(tap softly)
|------------------------|
|------------------------|GTR 1
|------------------------|
|------------------------|
|			 |
|------------------------|
|------------------------|
|------------------------|BASS
|-00000000-11111-3333333-|

RIFF 5 2x

|-------------------------------|
|-------------------------------|
|-------------------------------|
|-------------------------------|BOTH GTR
|-------------------------------|
|-00000000000000-111111-3333333-|
| .............. ...... .......	|
|-------------------------------|
|-------------------------------|
|-------------------------------|BASS
|-00000000000000-111111-3333333-|

Intro 1x

pick scr*pe

RIFF 1

RIFF 2

RIFF 3

OUTRO

|-------|
|-------|
|-------|
|-0-0-0-|BOTH GTR
|-0-0-0-|
|-0-0-0-|
| . . .	|
|-------|
|-------|
|-------|BASS
|-0-0-0-|
            
Submit corrections

comments powered by Disqus
↑ Back to top | Hatebreed Tabs for Will Be Heard. Lyrics for acoustic guitar and electric guitar. 1 Tablatures and chords are parodies/interpretations of the original songs. You may use it for private study, scholarship, research or language learning purposes only