» » »

Hatebreed, Will Be Heard Tabs (ver.1)

Artists:  A B C D E F G H I J K L M N O P Q R S T U V W X Y Z # 

Will Be Heard Tabs (ver.1)

Hatebreed Tabs
 Rating:
4/5 (4 votes)
Will Be Heard lessons Tabs too difficult? Try these video lessons and learn fast
                This is in C tuning. (C,F,Bb,Eb,G,C)
PM = Palm Mute

Main riff - "Now is the time..."  (4x)
|--------------------------------------------------------|
|--------------------------------------------------------|
|--------------------------------------------------------|
|--------------------------------------------------------|
|--------------------------------------------------------|
|-1-0--1-0-0-1--3-0--1-0-0-1--3-0--1-0-0-1--3-0--0-0-0-0-|



Second part - "cause I trusted for nothing!"  (7x)
|-------------------------------------|
|-------------------------------------|
|-------------------------------------|
|-------------------------------------|
|-------------------------------------|
|-3-5-0-6--0-8-0--0-0--3-5-0-6--0-1-0-|

Third part - "I....WILL....BE (I will be heard!)"  (4x)
|-----------------------------|
|-----------------------------|
|-----------------------------|
|-----------------------------|
|-----------------------------|
|-00000-00000-00000-3-4-5-4-3-|
PM..... ..... .....

High Part  (3x)
|------------------------|
|-0--------1-----3--1--3-|
|------------------------|
|------------------------|
|------------------------|
|------------------------|

"Through the words we prevail..."  (2x)
|-----------------------------------------------------------------|
|-----------------------------------------------------------------|
|-----------------------------------------------------------------|
|-----------------------------------------------------------------|
|-----------------------------------------------------------------|
|-0-0-0-0-0-0-0-0-0-0-0-0-0-0-0-0-1-1-1-1-1-1-1-1-3-3-3-3-3-3-3-3-|
PM. . . . . . . . . . . . . . . . . . . . . . . . . . . . . . . .

Ending  (1x)
|-----------|
|-----------|
|-----------|
|-----------|
|-----------|
|-0---0---0-|
            
Submit corrections

comments powered by Disqus
↑ Back to top | Hatebreed Tabs for Will Be Heard. Lyrics for acoustic guitar and electric guitar. Tablatures and chords are parodies/interpretations of the original songs. You may use it for private study, scholarship, research or language learning purposes only