» » »

Voice Of Contention Tabs (ver.1)

Artists:  A B C D E F G H I J K L M N O P Q R S T U V W X Y Z # 

Voice Of Contention Tabs (ver.1)

Hatebreed
Rating:
0/5 (0 votes)

Hard to play? Try these video lessons and learn fast.
                . = palm mute

Tuning: Two Full Steps Down - C,F,Bb,Eb,G,C (low to high)


Intro/Verse:
--2---3---2-----2-----3---5-----3-2---3---2-----2-----5-----5~--
--2---3---2-2-2-2-----3---5-----3-2---3---2-2-2-2-----5-2-2-5~-- 
--0-0-1-0-0-0-0-0-0-0-1-0-3-0-0-1-0-0-1-0-0-0-0-0-0-0-3-0-0-3~--
    .   .   . .   . .   .   . .     .   .   . .   . .   . .


Courus:
------------------------------------------
------------------------------------------
------------------------------------------
------9\10\9-------15-----15-----12~------  x3
------7\8 \8-------13-----13-----10~------ 
-0-0---------0-0-0----0-0----0-0----------
 . .         . . .    . .    . .


------------------------------------------
------------------------------------------
------------------------------------------ 
------9\10\9-------15-15-15-15-15-12-12~-- x1
------7\8 \8-------13-13-13-13-13-10-10~--
-0-0---------0-0-0------------------------
 . .         . . . 



Bridge:
------------------------------------------
------------------------------------------
--------------5-----5---------------------
----------2~--5-----5-----8\5------------- 
----------2~--3-333-3-333-6\3-------------
-00000000-0~------------------------------
 ........	...   ...


Intro/Verse x6
Courus x1
Intro/Verse x6
Bridge x 4
Courus x1
Intro/ Verse x6 (slower tempo)
            
Hard to play? Try these video lessons and learn fast. | Correct




comments powered by Disqus
↑ Back to top | Tablatures and chords are parodies/interpretations of the original songs. You may use it for private study, scholarship, research or language learning purposes only