» » »

Straight To Your Face Tabs (ver.1)

Artists:  A B C D E F G H I J K L M N O P Q R S T U V W X Y Z # 

Straight To Your Face Tabs (ver.1)

Hatebreed
Rating:
0/5 (0 votes)

Hard to play? Try these video lessons and learn fast.
                Hatebreed - Straight To Your Face
Drop C Tuning [C G C F A D ]

D|----------             D|-------
A|----------             A|-------
F|----------             F|-------
C|-7-7-7-6--             C|-3-0~--
G|-7-7-7-6-- Main Riff   G|-3-0~-- Add last time.
C|-7-7-7-6--  x3         C|-3-0~--


D|--------------------------|------------------
A|--------------------------|------------------
F|--------------------------|------------------
C|-7-7-7-6-0-6--3-3-3-3-3-3-|-7-7-7-6-0-6--3~--
G|-7-7-7-6-0-6--3-3-3-3-3-3-|-7-7-7-6-0-6--3~-- Verse Riff 1
C|-7-7-7-6-0-6--3-3-3-3-3-3-|-7-7-7-6-0-6--3~--


D|--------------------------|------------------
A|--------------------------|------------------
F|--------------------------|------------------
C|-7-7-7-6-0-6--3-3-3-3-3-3-|-7-7-7-6-0-6--0~--
G|-7-7-7-6-0-6--3-3-3-3-3-3-|-7-7-7-6-0-6--0~-- Verse Riff 2
C|-7-7-7-6-0-6--3-3-3-3-3-3-|-7-7-7-6-0-6--0~--


D|----------------------------------
A|----------------------------------
F|----------------------------------
C|-7-7-7-6-6-6-0-0-6-6-6-3-3-3-3-3--
G|-7-7-7-6-6-6-0-0-6-6-6-3-3-3-3-3-- Bridge Riff 1
C|-7-7-7-6-6-6-0-0-6-6-6-3-3-3-3-3-- 
   . . . . . . . . . . . . . . . .   pm.

D|----------------------------------
A|----------------------------------
F|----------------------------------
C|-7-7-7-6-6-6-0-0-6-6-6-6-6-6-6-6--
G|-7-7-7-6-6-6-0-0-6-6-6-6-6-6-6-6-- Bridge Riff 2
C|-7-7-7-6-6-6-0-0-6-6-6-6-6-6-6-6-- 
   . . . . . . . . . . . . . . . .   pm.

D|----------------------------------
A|----------------------------------
F|----------------------------------
C|-7-7-7-6-6-6-0-0-6-6-6-3-3-3-3-3--
G|-7-7-7-6-6-6-0-0-6-6-6-3-3-3-3-3-- Bridge Riff 1a
C|-7-7-7-6-6-6-0-0-6-6-6-3-3-3-3-3--
     . .   . .   .   . .   . . . .   pm.

D|--------------------
A|--------------------
F|--------------------
C|-7-7-7-6-6-6--3-0~--
G|-7-7-7-6-6-6--3-0~-- Bridge Riff 2a
C|-7-7-7-6-6-6--3-0~--
     . .   . . 

Repeat but without Palm Muting.
Thats the entire song, pretty easy.
            
Hard to play? Try these video lessons and learn fast. | Correct




comments powered by Disqus
↑ Back to top | Tablatures and chords are parodies/interpretations of the original songs. You may use it for private study, scholarship, research or language learning purposes only