» » »

Smash Your Enemies Tabs (ver.1)

Artists:  A B C D E F G H I J K L M N O P Q R S T U V W X Y Z # 

Smash Your Enemies Tabs (ver.1)

Hatebreed
Rating:
0/5 (0 votes)

Tabs too difficult? Try these video lessons and learn fast.
                tuning: drop "D" 

im only going to write down the strings used (D,a, and d) 
x= palm mute    
< >= continued on next line  

INTRO                                                                 
d------------------------------------------------------> 
a--0-0-0-0--1-0----0-0-0--6-0----0-0-0-0---1-0----0-0--> 
D--0-0-0-0--1-0----0-0-0--6-0----0-0-0-0---1-0----0-0--> 
   x x x x         x x x         x x x x          x x 

                                                       x6
<------------------------------------------------------|   
<--5-6-5---3-4-3---------------------------------------|      
<--5-6-5---3-4-3---------------------------------------|


on the last time  
let open ring out   
<--------> 
<---0----> 
<---0----> 
   

VERSE                                                 x 12 
d-------------------------------3-3---3---------------| 
a--6----0-0-0---0-0-0-0-0-0-----1-1---1----3-3---3----| 
D--6----0-0-0---0-0-0-0-0-0----------------3-3---3----|           
        x x x   x x x x x x 
             
CHORUS                                                x 4 
d---3-3-3---------------------------------------------| 
a---1-1-1---3-3-3---6---------------------------------|    
D-----------3-3-3---6---------------------------------|           

on the last time let  --6--  ring out 


OUTRO                                                        x 16  
d------------------------------------------------------------|  
a--1--0--1--0----3--4--3--2----------------------------------|    
D--1--0--1--0----3--4--3--2----------------------------------|   
  
on the last time palm mute 3-4-3-2 part (on D)  and let --0-- ring out 

  I know the side comments are kind of confusing, but every thing is right.  
Listen to the song for timing and everything.  This song is awesome so enjoy. 

 .....more HATEBREED tab soon
            
Tabs too difficult? Try these video lessons and learn fast.


comments powered by Disqus
↑ Back to top | Tablatures and chords are parodies/interpretations of the original songs. You may use it for private study, scholarship, research or language learning purposes only