» » »

Puritan Bass tabs (ver.1)

Artists:  A B C D E F G H I J K L M N O P Q R S T U V W X Y Z # 

Puritan Bass tabs (ver.1)

Hatebreed
Rating:
0/5 (0 votes)

Tabs too difficult? Try these video lessons and learn fast.
                F[-----------------]
C[-----------------]
G[-----------------] 4x
C[-1p0---3-3---0-1-]

F[---------------------------------------------------------------]
C[---------------------------------------------------------------]
G[---------------------------------------------------------------]
C[-1p0---3-3---0-1--0-0-0-000-00---1p0---3-3---0-1--0-0-0-0-0-0--]

F[----------------------------------------]
C[----------------------------------------]
G[----------------------------------------]
C[-3-1-0--3-1-0--3-1-0--3-1-0----56-56----]

F[----------------------]
C[----------------------]
G[----------------------]
C[-2/3-0-0-0000-0-0-0-0-]

F[---------------------------------------------------------------|----]
C[---------------------------------------------------------------|----]
G[-6------3------------2-----------------------------------------|----]
C[---3-4----4-3--1-3-4---4-3--0--0-0-0-0--0-0-0-0-0-0--0-0-0-0-0-|123-]
the 123 slide is not played on cd but he played it live on hellfest it sounds nice :-)

F[----------------------------------------]
C[----------------------------------------]
G[----------------------------------------]
C[-3-1-0--3-1-0--3-1-0--3-1-0----56-56----]

F[----------------------]
C[----------------------]
G[----------------------]
C[-2/3-0-0-0000-0-0-0-0-]

F[------------------------------]
C[------------------------------]
G[-6------3------------2--------]
C[---3-4----4-3--1-3-4---4-3--0-]
            
Tabs too difficult? Try these video lessons and learn fast.


comments powered by Disqus
↑ Back to top | Tablatures and chords are parodies/interpretations of the original songs. You may use it for private study, scholarship, research or language learning purposes only