» » »

Hatebreed, Perseverance Tabs (ver.3)

Artists:  A B C D E F G H I J K L M N O P Q R S T U V W X Y Z # 

Perseverance Tabs (ver.3)

Hatebreed Tabs
 Rating:
4/5 (4 votes)
Perseverance lessons Tabs too difficult? Try these video lessons and learn fast
                Tune down two whole steps. Play using power chords.	PM = Palm Muting


Intro
|-------------------||
|-------------------||
|-------------------||
|---------0-2-3-----||
|-------------------||
|-1-0-0-0-------0---||


Main riff - "I know your..."
|-------------------------------------||
|-------------------------------------||
|-------------------------------------||
|-------------------------------------||
|-------------------------------------||
|-8-7-7--0--3--1-0----7-6-6--0--3--1-0||


Second part - "Your world is comin' apart!"
|-------------------------------------------------||
|-------------------------------------------------||
|-------------------------------------------------||
|--------------------------------------------0-2-3||
|-------------------------------------------------||
|-111-0-111-0-111-0-111-0-111-0-111-0-111-0-1-----||


Just before breakdown
|----------------------------------------------------||
|----------------------------------------------------||
|----------------------------------------------------||
|-----------------------------------------------0-2-3||
|----------------------------------------------------||
|-0----0----0----0----0-0-0-0-0-0-0-0-0-0-0-0-0------||
		   PM..........................


Breakdown - "Perseverance!!"
|---------------------------------------------------------||
|---------------------------------------------------------||
|---------------------------------------------------------||
|----------------------------------------------------0-2-3||
|---------------------------------------------------------||
|-1-0-0--1-0-0--1-0-0--1-0-0--1-0-0--1-0-0--1-0-0--1------||
            
Submit corrections

comments powered by Disqus
↑ Back to top | Hatebreed Tabs for Perseverance. Lyrics for acoustic guitar and electric guitar. Tablatures and chords are parodies/interpretations of the original songs. You may use it for private study, scholarship, research or language learning purposes only