» » »

Hatebreed, Not One Truth Tabs (ver.2)

Artists:  A B C D E F G H I J K L M N O P Q R S T U V W X Y Z # 

Not One Truth Tabs (ver.2)

Hatebreed Tabs
Rating:
0/5 (0 votes)
Hard to play? Try these video lessons and learn fast.
                Listen to cd for rhythm and timing

Tuning: C G C F A D (drop D, whole step down)

-1-3-2-1-0--------------------------------------------------------------------
-1-3-2-1-0--------------------------------------------------------------------
         ^let open notes ring    (x8)                                         

-1-3-2-1-0---0---0-----0----0-0--0-----0-0--0----0----0-0--0------4-2-4-2-----
-1-3-2-1-0---0---0-----0----0-0--0-----0-0--0----0----0-0--0------4-2-4-2-----
         not one truth cast into stone only lies cast into flames             

-0------0---0---0-----0----0-0--0-----0-0--0----0----0-0--0-------4-2-4-2-----
-0------0---0---0-----0----0-0--0-----0-0--0----0----0-0--0-------4-2-4-2-----
 theres not one truth cast into stone only lies cast into flames              

-0------0---0----0----0----0-0--0-----0-0--0----0----0-0--0-------4-2-4-2-----
-0------0---0----0----0----0-0--0-----0-0--0----0----0-0--0-------4-2-4-2-----
 its time to burn........                                                     

-3-2-1-1-1-11-----------------------------------------------------------------
-3-2-1-1-1-11-----------------------------------------------------------------
 our eyes crystal clear........                                               

-1-3-2-1-0--------------------------------------------------------------------
-1-3-2-1-0--------------------------------------------------------------------
         ^let open notes ring  (x5)                 repeat last parts
            

comments powered by Disqus
↑ Back to top | Hatebreed Tabs for Not One Truth. Lyrics for acoustic guitar and electric guitar. Tablatures and chords are parodies/interpretations of the original songs. You may use it for private study, scholarship, research or language learning purposes only