>
 >
Most Truth

Most Truth Bass Tabs

Hatebreed - Most Truth chords, tabs, tablatures, lyrics

Guitar lessons | Add/correct | Request | Top 50 tabs Artists:  A B C D E F G H I J K L M N O P Q R S T U V W X Y Z 0-9

Most Truth Bass Tabs – Hatebreed

CD, Sheet music, Poster

Do you like Most Truth? Share with your friends now
Bass TabsTabs
Hatebreed - Most truth
Album     - Supremacy

Tuning: C,G,C,F


Intro:


      (2x)
F|-------------|
C|-------------|
G|-------------|
C|-7--3--6--0~-|



Verse:



F|---------------------------------|----------------------------|
C|---------------------------------|----------------------------|
G|---------8-5-----8-5---8-5---7-4-|---------8-5----------------|
C|-0-0-0-0-----0-0-----0-----0-----|-0-0-0-0-----0-0-7--3--6--0-|



F|-----------------------|
C|-----------------------|
G|-1--4--5--4--1-1-1-1/4-|
C|--------------0-0-0----|


Breakdown:



F|----------------------|
C|----------------------|
G|----------------------|
C|-000-000-000-004-0003-|



Hatebreed rulez!





Comments


Popular Hatebreed tabs & chords
Bloodsoaked Memories 1 Tabs
Conceived Through An Act Of Violence Tabs
Hell In A Heartbeat Intro Tabs
Hell In A HeartbeatIntro Tabs
In Ashes They Shall Reap Tabs
Kill An Addict Tabs
Not One Truth 2 Tabs
Perseverance Tabs
Perseverance 1 Tabs
Perseverence Tabs


Song lyrics



↑ Back to top | Tablatures and chords are parodies/interpretations of the original songs. You may use it for private study, scholarship, research or language learning purposes only
© 2014 AZChords.com Contact us | Privacy policy | DMCA | Add/correct tabs | Request tabs | Top 50 tabs