» » »

Last Breath Tabs (ver.2)

Artists:  A B C D E F G H I J K L M N O P Q R S T U V W X Y Z # 

Last Breath Tabs (ver.2)

Hatebreed
Rating:
0/5 (0 votes)

Hard to play? Try these video lessons and learn fast.
                Song-Last Breath
Artist-Hatebreed
Album-Satisfaction is the death of desire
Tuning-D A D g b e
palm mute-...

Intro:
|---------------------------------------------|
|---------------------------------------------|
|---------------------------------------------|
|---------------------------------------------|
|-0--4-3--0-4-3--0-3--------------------------|
|-0--4-3--0-4-3--0-3--------------------------|
Chorus:
|------------------||-------------------------|
|------------------||-------------------------|
|--2-----3---------||-------------------------|
|--2-----3---------||-------------------------|
|--2-0-0-3-0-0-0-0-||3333222211112222---------|
     . .   . . . .
figure out where the parts go,its not that hard
            
Hard to play? Try these video lessons and learn fast. | Correct




comments powered by Disqus
↑ Back to top | Tablatures and chords are parodies/interpretations of the original songs. You may use it for private study, scholarship, research or language learning purposes only