» » »

Horror Of Self Tabs (ver.1)

Artists:  A B C D E F G H I J K L M N O P Q R S T U V W X Y Z # 

Horror Of Self Tabs (ver.1)

Hatebreed
Rating:
0/5 (0 votes)

Hard to play? Try these video lessons and learn fast.
                
Intro:

|------------------------------------|
|------------------------------------|
|------------------------------------|
|-0~~~---6~~~--0~~~--6~~~------------|
|-0~~~---6~~~--0~~~--6~~~------------|  2x
|-0~~~---6~~~--0~~~--6~~~------------|

 at the second time
 (i know it's not 100% right)

|-----------------------------------------------------------|
|-----------------------------------------------------------|
|--10-12-10-12-10-12-10-12----10-13-10-13-10-13-10-13-10-13-|
|-----------------------------------------------------------|  2x
|-----------------------------------------------------------|
|-----------------------------------------------------------|


Chorus:
|--------------|
|--------------|
|--------------|
|--3-3~--1-0---|
|--3-3~--1-0---|
|--3-3~--1-0---|


Verse:
pm... .. ..... . . . .............
|------------------------------------|
|------------------------------------|
|------------------------------------|
|-666666666666-0-3-5-0000000000000---|
|-666666666666-0-3-5-0000000000000---|
|-666666666666-0-3-5-0000000000000---|


Chorus2:
|------------------------------------|
|------------------------------------|
|------------------------------------|
|-3-3~-1-x-----0~~~~~~---0~~~~~~~~---|
|-3-3~-1-x-----0~~~~~~---0~~~~~~~~---|
|-3-3~-1-x-----0~~~~~~---0~~~~~~~~---|


Verse2:
|------------------------------------|
|------------------------------------|
|------------------------------------|
|-7-0--0-7-0--0-8-8-7-5--------------|
|-5-0--0-5-0--0-6-6-5-3--------------|
|---0--0---0--0----------------------|


|------------------------------------|
|------------------------------------|
|------------------------------------|
|-7-0--0-7-0--0-8-11-10-8------------|
|-5-0--0-5-0--0-6--9--8-6------------|
|---0--0---0--0----------------------|





Intro   1x
Chorus  1x
Verse   4x
Chorus  1x
Verse   4x
Chorus2 1x
then: guitar hold the chords while bass plays verse2 2x
verse2  8x
chorus  1x


this is my first tab and i know that it is not 100% perfect but please rate it!!
            
Hard to play? Try these video lessons and learn fast. | Correct




comments powered by Disqus
↑ Back to top | Tablatures and chords are parodies/interpretations of the original songs. You may use it for private study, scholarship, research or language learning purposes only