» » »

Doomsayer Tabs (ver.3)

Artists:  A B C D E F G H I J K L M N O P Q R S T U V W X Y Z # 

Doomsayer Tabs (ver.3)

Hatebreed
Rating:
3/5 (2 votes)

Hard to play? Try these video lessons and learn fast.
                -------------------------------------------------------------------------------
        Doomsayer by Hatebreed               
-------------------------------------------------------------------------------

this song is bad ass and no one tabed it out right so i did.

Tuning: C F Bb Eb G C
                                                
c |-----------------------------------------------------------------------------|x5
G |-----------------------------------------------------------------------------|
Eb|-----------------------------------------------------------------------------|
Bb|-----------------------------------------------------------------------------|
F |----------10-7-10-11----------9-6-9-10----------10-7-10-11----------9-6-9-10-|
C |-00000000------------00000000----------00000000------------00000000----------|
    ........            ........          ........            ........

c |-------------------------------------------------------------|x4
G |-------------------------------------------------------------|
Eb|-------------------------------------------------------------|
Bb|---------------------------6-5-3-----------------------------|
F |----------2------------5---4-3-1--------2--------------------|
C |-00000000-0---00000000-3-0-------000000-0---0000000000000000-|
    ........     ........   .       ......     ................

c |------------------------------------------------------------|x4
G |------------------------------------------------------------|
Eb|------------------------------------------------------------|
Bb|-----------------3------2-5---------------------------------|
F |----------5-1111-1-0000-0-3-----5---5---------5-----5---5---|
C |-33333333-3-----------------0-0-3-0-3-0-0-0-0-3-0-0-3-0-3-0-|
    ........   ....   ....     . .   .   . . . .   . .   .   .

c |-----------------------------------------------------------------------------|x5
G |-----------------------------------------------------------------------------|
Eb|-----------------------------------------------------------------------------|
Bb|-----------------------------------------------------------------------------|
F |----------10-7-10-11----------9-6-9-10----------10-7-10-11----------9-6-9-10-|
C |-00000000------------00000000----------00000000------------00000000----------|
    ........            ........          ........            ........

c |-------------------------------------------------------------|x4
G |-------------------------------------------------------------|
Eb|-------------------------------------------------------------|
Bb|---------------------------6-5-3-----------------------------|
F |----------2------------5---4-3-1--------2--------------------|
C |-00000000-0---00000000-3-0-------000000-0---0000000000000000-|
    ........     ........   .       ......     ................

c |------------------------------------------------------------|x4
G |------------------------------------------------------------|
Eb|------------------------------------------------------------|
Bb|-----------------3------2-5---------------------------------|
F |----------5-1111-1-0000-0-3-----5---5---------5-----5---5---|
C |-33333333-3-----------------0-0-3-0-3-0-0-0-0-3-0-0-3-0-3-0-|
    ........   ....   ....     . .   .   . . . .   . .   .   .

c |-----|
G |-----|let ring
Eb|-----|
Bb|-----|
F |--2--|
C |--0--|
                                                           x4
c |----------------------------------------------------------|---|
G |----------------------------------------------------------|---|
Eb|----------------------------------------------------------|---|
Bb|----------------------------------------------------------|---|
F |-22-22-22222222-22-22-22222222-22-22-22222222-22-33-66-55-|-2-|
C |-00-00-00000000-00-00-00000000-00-00-00000000-00-11-44-33-|-0-|

| /  slide up
| \  slide down
| h  hammer-on
| p  pull-off
| ~  vibrato
| *  harmonic
| x  Mute note
| .  Palm mute
===============================================================================
            
Hard to play? Try these video lessons and learn fast. | Correct




comments powered by Disqus
↑ Back to top | Tablatures and chords are parodies/interpretations of the original songs. You may use it for private study, scholarship, research or language learning purposes only