» » »

Doomsayer Bass tabs (ver.1)

Artists:  A B C D E F G H I J K L M N O P Q R S T U V W X Y Z # 

Doomsayer Bass tabs (ver.1)

Hatebreed
Rating:
4/5 (6 votes)

Hard to play? Try these video lessons and learn fast.
                Band: Hatebreed
Tuning: C G C F
   
   this song is pretty easy. all you have to do is listen for timing.

    RIFF A         “Your doom awaits you . . .”
  
  |-----------------------------------------------------------------|
  |-----------------------------------------------------------------|
  |--------------8-0-8-9-------------------7-0-7-8------------------|
  |-0-0-0-0-0-0---------------0-0-0-0-0-0---------------------------|
    
    RIFF B          “Defeated . . .”
 
  |-----------------------------------------------------------------|
  |-----------------------------------------------------------------|
  |-----------------------------------------------------------------|
  |-0-0-0-0-0-0-0----0-0-0-0-0-0-3--0-9-8-6-------------------------|
    
    RIFF C          
  
  |-----------------------------------------------------------------|
  |-----------------------------------------------------------------|
  |-----------------------------------------------------------------|
  |-0-0-0-0-0-0-0----0-0-0-0-0-0-0-0-0-0----------------------------|
    

    RIFF D          “You will respect . . .”
 
  |-----------------------------------------------------------------|
  |-----------------------------------------------------------------|
  |-----------------------------------------------------------------|
  |------3-3-3-3-3-3-3—--6-6-6-6-6-6-6---5-5-5-5-5-5-5-9------------|
  

  |-----------------------------------------------------------------|
  |-----------------------------------------------------------------|
  |-----------------------------------------------------------------|
  |-0-0-0--3-0-3--0-0-0-0-0--3-0-3-3-------------(0)----------------|
 
  Outro
  |-----------------------------------------------------------------|
  |-----------------------------------------------------------------|
  |-----------------------------------------------------------------|
  |-0-0--0-0—0-0-0-0-0-0------0-0-1-1-4-4-3-3--------0--------------|
    
plz rate!!
            
Hard to play? Try these video lessons and learn fast. | Correct




comments powered by Disqus
↑ Back to top | Tablatures and chords are parodies/interpretations of the original songs. You may use it for private study, scholarship, research or language learning purposes only