» » »

Divine Judgement Bass tabs (ver.1)

Artists:  A B C D E F G H I J K L M N O P Q R S T U V W X Y Z # 

Divine Judgement Bass tabs (ver.1)

Hatebreed
Rating:
0/5 (0 votes)

Hard to play? Try these video lessons and learn fast.
                Hatebreed - Divine judgement
Album     - Supremacy

Tuning: C,G,C,F


Intro and Verse:



F|-----------------------|
C|-----------------------|
G|-5----6----9-8-6-6-6-6-|
C|--0000-0000------------|



F|-------------------------------|
C|-------------------------------|
G|-9--9--9--9-9-9-8--8--8--8-8-8-|
C|-------------------------------|


                   1:00
F|------------------------------------------|
C|------------------------------------------|
G|------------------------------------------|
C|-6-5-0~-6-5-3-0~-6-5-0~-6-5-3-0-3-5-5-5-5-|


Breakdown:



F|--------------------------------------|
C|--------------------------------------|
G|----------------------------5-3-6-5-3-|
C|-000000000-0000-00000000000-----------|



Hatebreed rulez!
            
Hard to play? Try these video lessons and learn fast. | Correct




comments powered by Disqus
↑ Back to top | Tablatures and chords are parodies/interpretations of the original songs. You may use it for private study, scholarship, research or language learning purposes only