» » »

Confide In No One Tabs (ver.1)

Artists:  A B C D E F G H I J K L M N O P Q R S T U V W X Y Z # 

Confide In No One Tabs (ver.1)

Hatebreed
Rating:
0/5 (0 votes)

Hard to play? Try these video lessons and learn fast.
                
Tuning: Drop C (C G C F A D)

you want...

TAB TAB TAB:
------------

Intro & Verse riff:

D|-------------------------------------------------------------------------|
A|-------------------------------------------------------------------------|
F|-------------------------------------------------------------------------|
C|-------------------------------------------------------------------------|
G|-6----6----6----6--------------------------------------------------------|
C|-6----6----6----6----0--0-0-0-0-0-0-0-0-0-0-0-0-0-0----------------------|
PM                        . . . . . . . . . . . . . .

D|-------------------------------------------------------------------------|
A|-------------------------------------------------------------------------|
F|-------------------------------------------------------------------------|
C|-------------------------------------------------------------------------|
G|-1----1----1----1--------------------------------------------------------|
C|-1----1----1----1----0--0-0-0-0-0-0-0-0-0-0-0-0-0-0----------------------|
PM                        . . . . . . . . . . . . . .

Chorus riff:

D|-------------------------------------------------------------------------|
A|-------------------------------------------------------------------------|
F|-------------------------------------------------------------------------|
C|-------------------------------------------------------------------------|
G|-1------------------------------1----------------------------------------|
C|-1--0-0-0-0-0-0-0-0-0-0-0-0-0-0-1--0-0-0-0-0-0-0-0-0-0-0-0-0-0-----------|
PM    . . . . . . . . . . . . . .   . . . . . . . . . . . . . .

D|-------------------------------------------------------------------------|
A|-------------------------------------------------------------------------|
F|-------------------------------------------------------------------------|
C|-----------------------------------------------3-5-6---------------------|
G|-1------------------------------1--------------1-3-4---------------------|
C|-1--0-0-0-0-0-0-0-0-0-0-0-0-0-0-1--0-0-0-0-0-0---------------------------|
PM    . . . . . . . . . . . . . .    . . . . . .

Bridge riff 1:

D|-------------------------------------------------------------------------|
A|-------------------------------------------------------------------------|
F|-------------------------------------------------------------------------|
C|-------------------------------------------------------------------------|
G|-1---1---1--0---0---0--7---7---7--8---8---8------------------------------|
C|-1---1---1--0---0---0--7---7---7--8---8---8------------------------------|
PM

Bridge riff 2:

D|-------------------------------------------------------------------------|
A|-------------------------------------------------------------------------|
F|-------------------------------------------------------------------------|
C|-------------------------------------------------------------------------|
G|-1--1-1--1-1--0--0-0--0-0---7--7-7--7-7--8--8-8--8-8---------------------|
C|-1--1-1--1-1--0--0-0--0-0---7--7-7--7-7--8--8-8--8-8---------------------|
PM

Breakdown riff 1:

(Half tempo)
D|-------------------------------------------------------------------------|
A|-------------------------------------------------------------------------|
F|-------------------------------------------------------------------------|
C|-------------------------------------------------------------------------|
G|-1--0-0-0--0-0-0--0-0--0-0-0-0--0-0-0--0-0-0--0-1--0-1-0-----------------|
C|-1--0-0-0--0-0-0--0-0--0-0-0-0--0-0-0--0-0-0--0-1--0-1-0-----------------|
PM    . . .  . . .  . .  . . . .  . . .  . . .  .    .   .

Breakdown riff 2:

D|-------------------------------------------------------------------------|
A|-------------------------------------------------------------------------|
F|-------------------------------------------------------------------------|
C|-------------------------------------------------------------------------|
G|-1--0--0----0-0--0-0---0-0-0-0--0--0---0-0--0--1--0-1-0------------------|
C|-1--0--0----0-0--0-0---0-0-0-0--0--0---0-0--0--1--0-1-0------------------|
PM    .  .    . .  . .   . . . .  .  .   . .  .     .   .


Outro riff:

(Back to normal tempo)
D|-------------------------------------------------------------------------|
A|-------------------------------------------------------------------------|
F|-------------------------------------------------------------------------|
C|-------------------------------------------------------------------------|
G|-6----6----6----6-----------------------------------1----1----1----0-----|
C|-6----6----6----6----0--0-0-0-0-0-0-0-0-0-0-0-0-0-0-1----1----1----0-----|
PM                        . . . . . . . . . . . . . .


Song order:
-----------

Intro riff        x 2
Chorus riff       x 4
Verse riff        x 2
Chorus riff       x 6
Bridge riff 1     x 2
Bridge riff 2     x 4
Breakdown riff 1  x 4
Breakdown riff 2  x 2
Verse riff        x 1
Outro riff        x 1


Well, that's about it, have fun playing it!
            
Hard to play? Try these video lessons and learn fast. | Correct




comments powered by Disqus
↑ Back to top | Tablatures and chords are parodies/interpretations of the original songs. You may use it for private study, scholarship, research or language learning purposes only