» » »

Hatebreed, Condemned Until Rebirth Tabs (ver.2)

Artists:  A B C D E F G H I J K L M N O P Q R S T U V W X Y Z # 

Condemned Until Rebirth Tabs (ver.2)

Hatebreed Tabs
Rating:
4/5 (8 votes)
Condemned Until Rebirth lessons Tabs too difficult? Try these video lessons and learn fast
                Tuning: CGCFAD (Drop C)

Okay, the other two don't make any sense... so I decided to do it. 

Try this... the solo may not be exact, but it's the best I could figure out at the moment.

The rhythm, well you can figure that out for yourself.


	(2x)	     (on second time)		(4x)
D|----------------------|--------|------------------------------|
A|----------------------|--------|------------------------------|
F|----------------------|--------|------------------------------|
C|--3--7--6-----1--4--3-|-/--/---|---3--7--6-----3----0---------|
G|--3--7--6-----1--4--3-|-/--/---|---3--7--6-----3----0---------|
C|--3--7--6-----1--4--3-|-/--/---|---3--7--6-----3----0---------|


	(2x)					
D|----------------------|
A|----------------------|
F|----------------------|
C|--3--7--6-----1--4--3-|
G|--3--7--6-----1--4--3-|
C|--3--7--6-----1--4--3-|


D|-------------------------------------------|
A|-------------------------------------------|
F|------------------6--------------------6---|
C|--1-0--0-0-0--0-0-6-1--1-0--0-0-0--0-0-6-1-|
G|--1-0--0-0-0--0-0-4-1--1-0--0-0-0--0-0-4-1-|
C|--1-0--0-0-0--0-0---1--1-0--0-0-0--0-0---1-|


D|-------------------------------------------|
A|-------------------------------------------|
F|------------------6------------------------|
C|--1-0--0-0-0--0-0-6-1-1-0--0-0-0--0-0-8-6--|
G|--1-0--0-0-0--0-0-4-1-1-0--0-0-0--0-0-8-6--|
C|--1-0--0-0-0--0-0---1-1-0--0-0-0--0-0-8-6--|


D|-------------------------------------------|
A|-------------------------------------------|
F|------------------6--------------------6---|
C|--1-0--0-0-0--0-0-6-1--1-0--0-0-0--0-0-6-1-|
G|--1-0--0-0-0--0-0-4-1--1-0--0-0-0--0-0-4-1-|
C|--1-0--0-0-0--0-0---1--1-0--0-0-0--0-0---1-|


D|-------------------------------------------|
A|-------------------------------------------|
F|------------------6------------------------|
C|--1-0--0-0-0--0-0-6-1-1-0--0-0-0--0-0-8-6--|
G|--1-0--0-0-0--0-0-4-1-1-0--0-0-0--0-0-8-6--|
C|--1-0--0-0-0--0-0---1-1-0--0-0-0--0-0-8-6--|

	(2x)
D|----------------------|
A|----------------------|
F|----------------------|
C|--3--7--6-----1--4--3-|
G|--3--7--6-----1--4--3-|
C|--3--7--6-----1--4--3-|


D|-------------------------------------------|
A|-------------------------------------------|
F|------------------6--------------------6---|
C|--1-0--0-0-0--0-0-6-1--1-0--0-0-0--0-0-6-1-|
G|--1-0--0-0-0--0-0-4-1--1-0--0-0-0--0-0-4-1-|
C|--1-0--0-0-0--0-0---1--1-0--0-0-0--0-0---1-|


D|-------------------------------------------|
A|-------------------------------------------|
F|------------------6------------------------|
C|--1-0--0-0-0--0-0-6-1-1-0--0-0-0--0-0-8-6--|
G|--1-0--0-0-0--0-0-4-1-1-0--0-0-0--0-0-8-6--|
C|--1-0--0-0-0--0-0---1-1-0--0-0-0--0-0-8-6--|

D|-------------------------------------------|
A|-------------------------------------------|
F|------------------6--------------------6---|
C|--1-0--0-0-0--0-0-6-1--1-0--0-0-0--0-0-6-1-|
G|--1-0--0-0-0--0-0-4-1--1-0--0-0-0--0-0-4-1-|
C|--1-0--0-0-0--0-0---1--1-0--0-0-0--0-0---1-|


D|-------------------------------------------|
A|-------------------------------------------|
F|------------------6------------------------|
C|--1-0--0-0-0--0-0-6-1-1-0--0-0-0--0-0-8-6--|
G|--1-0--0-0-0--0-0-4-1-1-0--0-0-0--0-0-8-6--|
C|--1-0--0-0-0--0-0---1-1-0--0-0-0--0-0-8-6--|


	(2x)
D|----------------------|
A|----------------------|
F|----------------------|
C|--3--7--6-----1--4--3-|
G|--3--7--6-----1--4--3-|
C|--3--7--6-----1--4--3-|


	"Solo" over the same rhythm riff
D|---------------------------------------|
A|---------------------------------------|
F|----------------------------3-2--------|
C|-3--1-3--1--3--1---3--1-3-------3------|
G|---------------------------------------|
C|---------------------------------------|
	Rhythm Part			    
D|--------------------------------|
A|--------------------------------|
F|--------------------------------|
C|--3--7--6----------1--4--3------|
G|--3--7--6----------1--4--3------|
C|--3--7--6----------1--4--3------|


   Outro (play once)
D|----------------------|
A|----------------------|
F|----------------------|
C|--3--7--6-----1--4--3-|
G|--3--7--6-----1--4--3-|
C|--3--7--6-----1--4--3-|
            

comments powered by Disqus
↑ Back to top | Hatebreed Tabs for Condemned Until Rebirth. Lyrics for acoustic guitar and electric guitar. Tablatures and chords are parodies/interpretations of the original songs. You may use it for private study, scholarship, research or language learning purposes only